Satanic Surfers

Satanic Surfers - Miss Bigmouth bass tab

Je score:
Song:miss bigmouth
Band:satanic surfers
Album:keep out
tabbed by: Sylvain Bussi�res tatahutte@hotmail.com & Alberto zorrico3@yahoo.com


intro A
G:--------------------11--------------------------------15-17-15-----
D:-----14-12----12-14----14-12-14-12--------------15-17----------17--
A:-----------14----------------------14------------------------------
E:--12----------------------------------10-10-8>---------------------

intro B
G:--------------------------------------------------
D:------9-----12------------------------------------
A:--10>---10>----10>--------------9-----------9----- X 2
E:-------------------12-12-12-10>---10>-8>-10---10--

intro C
G:-------------------------
D:-------------------------
A:--10>--------------9-----
E:------8>-10>-8>-10---10--

verse A
G:---------------------------------------
D:---------------------------------------
A:--10>-----------10>--------------9----- X 2
E:------8>-10>-8>-----8>-10>-8>-10---10--

G:----------------------------------------11-----------------
D:------14-12----12-----------------10-12----12-10----10-----
A:------------14----14-12-10-12--------------------12----12--
E:--12>-------------------------10>--------------------------

G:-----------------------------------------------------
D:--------------9-9-10-12---------10-9-----------------
A:--10-10-10-10------------------------10-8-10---------
E:------------------------10>-12>--------------8>-10>--

instrumental part
G:-------------------------------------------------
D:--------------9-9-9-10-12------------------------
A:--10-10-10-10------------------------------9-----
E:--------------------------8-8-8-8-10-10-10---10--

G:----------------------------------------------------
D:--------------9-9-9-10-12---------------------------
A:--10-10-10-10---------------------------9-10-12\17--
E:--------------------------8-8-8-8-10-10-------------

G:-----------------------------------------------11-----
D:--------------9-9-9-10-12-10-10-10-10-12-12-12----12--
A:--10-10-10-10-----------------------------------------
E:------------------------------------------------------

G:----------------------------------------------------------
D:----------------------------------------------------------
A:--10-10-10-10-9-9-9-10-12------------------9------10-10/--
E:--------------------------8-8-8-8-10-10-10---10-----------
over solo
G:-------------------
D:-------------------
A:------------------- X 4
E:--3>-4-6-4-6-5-4>--

intro B X 2

verse B
G:------------------------------------------------------------
D:------------------------------------------------------------
A:-----10-9-----7-9-10>--------7>-----------10-9-7-----9-10>--
E:--8>------10>---------8>-10>----8>-10>-8>--------10>--------

intro B X 1

outro
G:------------
D:------------
A:--10-10-10--
E:------------
Vind dit lied op:
bol.com
amazon.com

Copyrights:

Auteur: Rodrigo Alfaro

Componist: ?

Publisher: Burning Heart Records

Details:

Uitgegeven in: 1994

Taal: Engels

Deel je mening

Dit formulier wordt beschermd door reCAPTCHA en de Google Privacy Policy en Servicevoorwaarden zijn daarbij van toepassing.

0 Reacties gevonden