Satanic Surfers

Satanic Surfers - Head Under Water gitaar tab

Je score:
PROPS GO TO: ^ [ R @ G E ] ^

SATANIC SURFERS-HEAD UNDER WATER   (HERO OF OUR TIME)

INTRO:

RIFF1:

E |---------------------------------------------------
B |---------------------------------------------------
G |-x-7-x-----------4------x-7-x----------------------
D |-x-7-x--5h7p5-4--4--5---x-7-x--5h7p5-4---7--5--4---
A |-x-5-x-----------2--5---x-5-x----------------------
E |--------------------3------------------------------

E |---------------------------------------------------
B |---------------------------------------------------
G |-x-7-x-----------4------x-7-x----------------------
D |-x-7-x--5h7p5-4--4--5---x-7-x--5h7p5-4---5--4------
A |-x-5-x-----------2--5---x-5-x------------------7---
E |--------------------3------------------------------

G, A

VERSE:

D, A, G, E
D, A, G, G-A
(x2)
E, G, A

RIFF1: (ONLY PLAY THE SECOND HALF OF "RIFF1:")

G, A, D-B, E, G, A

REF:

B, G, A, D-E (x2)

G, A

BRIDGE: (ONLY BASS IN THE BEGINNING:)

D, A, G, Eii, D, A, G, G-A

VERSE2: D, A, G, E (x2)

REF:

RIFF1: (PLAY "RIFF1:" THEN ADD THE FOLLOWING RIFF:)

RIFF2:

E |--------------------------
B |--------------------------
G |------------4---------7---
D |--7--5--4------7--5---7---
A |----------------------5---
E |--------------------------
Vind dit lied op:
bol.com
amazon.com

Copyrights:

Auteur: ?

Componist: ?

Publisher: Burning Heart Records

Details:

Uitgegeven in: 1995

Taal: Engels

Deel je mening

Dit formulier wordt beschermd door reCAPTCHA en de Google Privacy Policy en Servicevoorwaarden zijn daarbij van toepassing.

0 Reacties gevonden