Satanic Surfers

Satanic Surfers - Dickweed bass tab

Je score:
Song:Dickweed
Album: Keep Out
Artist: Stanic Surfers
Tabbed by: Alberto  zorrico3@yahoo.com

Under guitar intro:
G:--------
D:--------
A:-5>-----  X 4
E:----5>--

G:-----------------6---|-----------------6-9-7p6--
D:---4-5-4---6-7-9---9-|---4-5-4---6-7-9----------
A:-5-------7-----------|-5-------7----------------   X 2
E:---------------------|--------------------------

Verse:
G:-------------------------------------------
D:-------------------------------------------
A:-5-----5----5>-------5>-0----5>-0----------
E:---3-5---3>----5>-3>------3>------3-3-3-3--

G:-------------------------------------------------
D:-------------------------------------------------
A:-5>-------3-5>----5>-------5>-0----5>-0----------
E:----3>-5>------3>----5>-3>------3>------3-3-3-3--

Bridge:
G:--------
D:--------
A:--------
E:-5>-3>--

Chorus:
G:---------
D:---------
A:-5-------   X 4
E:---5-3>--

Over guitar solo:
G:------------
D:------------
A:-7>-7-------  X 4
E:------7-5>--

After guitar solo:
G:-------------
D:-------------
A:-5-5---------  X 2
E:-----5---3>--

Verse (only half)

Outro:
G:------------------------
D:---------------2-3------
A:-5-3-----2-4-5----------
E:-----3-5-----------1-3--
Vind dit lied op:
bol.com
amazon.com

Copyrights:

Auteur: Rodrigo Alfaro

Componist: ?

Publisher: Burning Heart Records

Details:

Uitgegeven in: 1994

Taal: Engels

Deel je mening

Dit formulier wordt beschermd door reCAPTCHA en de Google Privacy Policy en Servicevoorwaarden zijn daarbij van toepassing.

0 Reacties gevonden