Nikolai Rimsky-Korsakov

Nikolai Rimsky-Korsakov - The Flight Of The Bumblebee Ver 2 gitaar tab

Je score:
This is an awesome guitar piece that is really fun to learn, but it's pretty tough to get it up to
speed.  The tempo is about 140 bpm, and the time signature is 2/4.  There isn't really a key, it's
mostly chromatic.  It helps to hear the song before you try to learn it, so you can get the feel
for it.  Good luck.


The Flight of the Bumblebee
Nicolai Rimsky-Korsakov
tabbed by Maestro

  Intro.

E|-12-11-10-9-10-9-8-7-|-8-7-6-5---------|-----------------|-----------------|-----------------|
B|---------------------|---------9-8-7-6-|-----------------|-----------------|-----------------|
G|---------------------|-----------------|-9-8-7-6-7-6-5-4-|-5-4-3-2---------|-9-8-7-6-7-6-5-4-|
D|---------------------|-----------------|-----------------|---------6-5-4-3-|-----------------|
A|---------------------|-----------------|-----------------|-----------------|-----------------|
E|---------------------|-----------------|-----------------|-----------------|-----------------|

                       Main Theme
                        Amin                      Dmin      Amin                      Dmin
E|-----------------||-------------------|-----------------|-----------------|-----------------|
B|-----------------||---5---------6-5---|-5---------------|-5---------6-5---|-5---------------|
G|-9-8-7-6-7-6-5-4-||-*---8-7-6-5-----8-|---8-7-6-5-6-7-8-|---8-7-6-5-----8-|---8-7-6-5-6-7-8-|
D|-----------------||-*-----------------|-----------------|-----------------|-----------------|
A|-----------------||-------------------|-----------------|-----------------|-----------------|
E|-----------------||-------------------|-----------------|-----------------|-----------------|

  Amin     Dmin      Amin    E7        Amin    Dmin      Amin    E7
E|-----------------|-----------------|-----------------|-----------------|
B|-----------------|---------5-6-5---|-----------------|---------5-7-8-9-|
G|-9-8-7-6-7-6-5-4-|-5-6-7-8-------8-|-9-8-7-6-7-6-5-4-|-5-6-7-8---------|
D|-----------------|-----------------|-----------------|-----------------|
A|-----------------|-----------------|-----------------|-----------------|
E|-----------------|-----------------|-----------------|-----------------|

   A7          Dmin                      G             A7          Dmin
E|-------------------------|-------------------------|-------------------------|
B|-10-------------11-10----|-10----------------------|-10-------------11-10----|
G|----13-12-11-10-------13-|----13-12-11-10-11-12-13-|----13-12-11-10-------13-|
D|-------------------------|-------------------------|-------------------------|
A|-------------------------|-------------------------|-------------------------|
E|-------------------------|-------------------------|-------------------------|

               G             Dmin        Gmin         Dmin        A7
E|-------------------------|------------------------|-------------------------|
B|-10----------------------|------------------------|-------------10-11-10----|
G|----13-12-11-10-11-12-13-|-14-13-12-11-12-11-10-9-|-10-11-12-13----------13-|
D|-------------------------|------------------------|-------------------------|
A|-------------------------|------------------------|-------------------------|
E|-------------------------|------------------------|-------------------------|

   Dmin        Gmin         Dmin        A7            Dmin                      Bb7
E|------------------------|-------------------------|-------------------------|--------------------|
B|------------------------|-------------10-11-10----|-10-10-10-10-10-10-10-10-|-9-11-9-11-9-11-9-11|
G|-14-13-12-11-12-11-10-9-|-10-11-12-13----------13-|-------------------------|--------------------|
D|------------------------|-------------------------|-------------------------|--------------------|
A|------------------------|-------------------------|-------------------------|--------------------|
E|------------------------|-------------------------|-------------------------|--------------------|

   Dmin                      Bb7                   A          Bb7          A
E|-------------------------|---------------------|-----------------------|-----------------------|
B|-10-10-10-10-10-10-10-10-|-9-11-9-11-9-11-9-11-|-10-11-10-9-10-11-10-9-|-10-11-10-9-10-11-10-9-|
G|-------------------------|---------------------|-----------------------|-----------------------|
D|-------------------------|---------------------|-----------------------|-----------------------|
A|-------------------------|---------------------|-----------------------|-----------------------|
E|-------------------------|---------------------|-----------------------|-----------------------|

   F+                       F+                       D                         Eb7
E|-------------9----------|-------------9----------|-------------------------|------------------|
B|-10-11-12-13---13-12-11-|-10-11-12-13---13-12-11-|----15-15-15-15-15-15-15-|---16--16--16--16-|
G|------------------------|------------------------|-14----------------------|-15--15--15--15---|
D|------------------------|------------------------|-------------------------|------------------|
A|------------------------|------------------------|-------------------------|------------------|
E|------------------------|------------------------|-------------------------|------------------|

   D                         Eb7                D           Eb7           D
E|-------------------------|------------------|-------------------------|-------------------------|
B|-15-15-15-15-15-15-15-15-|---16--16--16--16-|-15-16-15-14-15-16-15-14-|-15-16-15-14-15-16-15-14-|
G|-------------------------|-15--15--15--15---|-------------------------|-------------------------|
D|-------------------------|------------------|-------------------------|-------------------------|
A|-------------------------|------------------|-------------------------|-------------------------|
E|-------------------------|------------------|-------------------------|-------------------------|

   D+                        D+                        Gmin
E|-------------14----------|-------------14----------|-------------------------|
B|-15-16-17-18----18-17-16-|-15-16-17-18----18-17-16-|-15-------------16-15----|
G|-------------------------|-------------------------|----18-17-16-15-------18-|
D|-------------------------|-------------------------|-------------------------|
A|-------------------------|-------------------------|-------------------------|
E|-------------------------|-------------------------|-------------------------|

               Cmin          Gmin        Cdim          Gmin        Dmin
E|-------------------------|-------------------------|-------------------------|
B|-15----------------------|-------------------------|-------------------15-16-|
G|----18-17-16-15-16-17-18-|-19-18-17-16-17-16-15-14-|-15-16-17-18-17-18-------|
D|-------------------------|-------------------------|-------------------------|
A|-------------------------|-------------------------|-------------------------|
E|-------------------------|-------------------------|-------------------------|

                                                     1.-------------------------------------|

E|-------------------------|-------------------------|-------------------------|------------||
B|-17-16-15----15----------|-------------------------|-------------------------|------------||
G|----------18----18-17-16-|-17-16-15-14-------------|-------------------------|-----------*||
D|-------------------------|-------------18-17-16-15-|-14-15-14----14-15-14----|---*/*-----*||
A|-------------------------|-------------------------|----------18----------18-|------------||
E|-------------------------|-------------------------|-------------------------|------------||

2.---------------------------------------------------------------------------------------|
                                                                                          Fine
E|-------------------------|-------------12-13-14-16-|-17---|-17---|----------|----------||
B|-------------------------|-13-14-15-16-------------|------|------|----------|----------||
G|-------------13-14-15-16-|-------------------------|------|------|-----14---|----------||
D|-14-15-16-17-------------|-------------------------|------|------|----------|--7-------||
A|-------------------------|-------------------------|------|------|-12-------|--7-------||
E|-------------------------|-------------------------|------|------|----------|--5-------||
Vind dit lied op:
bol.com
amazon.com

Copyrights:

Auteur: ?

Componist: ?

Publisher: ?

Details:

Taal: Engels

Deel je mening

Dit formulier wordt beschermd door reCAPTCHA en de Google Privacy Policy en Servicevoorwaarden zijn daarbij van toepassing.

3 Reacties gevonden

sum41roc

Tuesday 19th of April 2005 21:30

WOW, this is amazing stuff

Aguitar

Wednesday 1st of December 2004 18:58

Beautiful practice material. Thanks for posting!

RATMPuNk

Saturday 27th of November 2004 12:42

no... f*ucking way... you are god.