Next In Line

Next In Line - Get Out gitaar tab

Je score:
Band: Next In Line
Song: Get Out

Intro:
-------------------------|
-------------------------|
-------------------------|
-5---2-------------------|
-3---0---3---------------|
----------1--------------|

Verse:
-------------------------|
-------------------------|
-------------------------|
-5-----------------------|
-3---5----3--------------|
------3----1-------------|

Chorus:
-------------------------|
-------------------------|
-------------------------|
--5---2------------------|
--3---0-- 5----3---------|
-----------3----1--------|

-------------------------|
-------------------------|
-------------------------|
-5-----------------------|
-3---5----3--------------|
------3----1-------------|

-------------------------|
-------------------------|
-------------------------|             x 2
--5---2------------------|
--3---0-- 5----3---------|
-----------3----1--------|

Order:

Intro
Verse
Chorus
Verse 2
Repeat Chorus
Repeat Chorus x2
Vind dit lied op:
bol.com
amazon.com

Copyrights:

Auteur: ?

Componist: ?

Publisher: ?

Details:

Taal: Engels

Deel je mening

Dit formulier wordt beschermd door reCAPTCHA en de Google Privacy Policy en Servicevoorwaarden zijn daarbij van toepassing.

0 Reacties gevonden