Moe

Moe - Rebubula gitaar tab

Je score:
Author/Artist: moe.
Title: Rebubula
Album: No Doy
Transcribed by: jiboo92
------------------------------------------------------------------------------
-------3---------------------3--------------------3--------------------3---3--
---0h2---2-2----0---0----0h2---2-2------------0h2---2-2---0---0----0h2---2----
-0------------4---2----0-------------0---0--0-----------4---2----0------------
-----------------------------------4---2--------------------------------------
------------------------------------------------------------------------------
 G1 Intro (Part A)       4x

------------------------------------------------------------------------------
------------------------------------------------------------------------------
-7^---------------------------------------------------------------------------
------------------------------------------------------------------------------
------------------------------------------------------------------------------
------------------------------------------------------------------------------
 G2 Comes in the 2nd time through and just plays little fillers.

------------------------------------------------------------------------------
-15-12h14p12--------------15-12h14p12--------------15-12h14p12----------------
-------------14-12-12h14--------------14-12-12h14--------------14-12-12h14----
------------------------------------------------------------------------------
------------------------------------------------------------------------------
------------------------------------------------------------------------------
 G2 Intro (Part A) 3rd and 4th time thru

------------------------------------------------------------------------------
-15-12h14p12-12-10vvvvv-------------------------------------------------------
------------------------------------------------------------------------------
------------------------------------------------------------------------------
------------------------------------------------------------------------------
------------------------------------------------------------------------------


------------------------------------------------------------------------------
------------------------------------10h12p10vvvvvvvv--------------------------
-14br---------------11-------11-----------------------14br---------------11---
------14br-14-12-14----12-14----12-------------------------14br-14-12-14------
------------------------------------------------------------------------------
------------------------------------------------------------------------------
 G1 Intro   (part B)  2x

----------x-x-x---------------------------------------------------------------
-------11-x-x-x-7--7----------------------------------------------------------
----------x-x-x-7----7--------------------------------------------------------
-12-14----x-x-x-7-------------------------------------------------------------
----------x-x-x-5-------------------------------------------------------------
----------x-x-x---------------------------------------------------------------


------------------------------------------------------------------------------
-10br---------------7--------7------------------------10br-------------7------
------9br-9---7--9-----7--9-----7vv--7h9p7-----------------9br-9-7--9-----7---
-------------------------------------------9-7-9-7-4v-------------------------
------------------------------------------------------------------------------
------------------------------------------------------------------------------
 G2 Intro (Part B)     2x (In unison w/ part G1)

-----x-x-x--------------------------------------------------------------------
---7-x-x-x-7-7h10p7-----------------------------------------------------------
-9---x-x-x-7--------9-7vvv----------------------------------------------------
-----x-x-x-7------------------------------------------------------------------
-----x-x-x-5------------------------------------------------------------------
-----x-x-x--------------------------------------------------------------------
   (Note: there's a little variation 2nd time thru, but basically the same)

------------------------------------------------------------------------------
-15-12h14p12--------------15-12h14p12--------------15-12h14p12----------------
-------------14-12-12h14--------------14-12-12h14--------------14-12-12h14----
------------------------------------------------------------------------------
------------------------------------------------------------------------------
------------------------------------------------------------------------------
 G1 Intro (Part C)

---------------10\------------------------------------------------------------
-15-12h1412-12-10\------------------------------------------------------------
------------------------------------------------------------------------------
------------------------------------------------------------------------------
------------------------------------------------------------------------------
------------------------------------------------------------------------------
 G1 Intro (Part C cont.)

------------------------------------------------------------------------------
-15-12h14r12--------------15-12h14r12--------------15-12h14r12----------------
-------------14-12-12h14--------------14-12-12h14--------------14-12-12h14----
------------------------------------------------------------------------------
------------------------------------------------------------------------------
------------------------------------------------------------------------------
 G2 Intro (Part C) (In unison with G1)

------------------------------------------------------------------------------
-12-12h14r12-12-10vvvvvv------------------------------------------------------
------------------------------------------------------------------------------
------------------------------------------------------------------------------
------------------------------------------------------------------------------
------------------------------------------------------------------------------
 G2 Intro (Part C cont)

-2-2---------x-x-x-x----------------------------------------------------------
-3-3-3-3/5\3-x-x-x-x----------------------------------------------------------
-----2-2/4\2-x-x-x-x----------------------------------------------------------
-------------x-x-x-x----------------------------------------------------------
-------------x-x-x-x----------------------------------------------------------
-------------x-x-x-x----------------------------------------------------------
 Verse G2 (G1 is playing its intro Part A part in between singing)

------------------------------------------------3-----------------------------
-7----------------------5-----------------------3-----------------------------
-7----------------------5-----------------------4-----------------------------
-7----------------------5-----------------------5-----------------------------
-5----------------------3-----------------------5-----------------------------
------------------------------------------------3-----------------------------
 "Rip off all my limbs, poke out both my eyes, pull out my swollen tongue,

------------------------------------------------------------------------------
-5----------------------------------------------------------------------------
-5----------------------------------------------------------------------------
-5----------------------------------------------------------------------------
-3----------------------------------------------------------------------------
------------------------------------------------------------------------------
 wear a thin disguise..." and so on (that is for both guitars)

Then it goes back to Intro Part C for both guitars, verse, chorus, intro
part C, intro part B, and then


THE SOLO (G2)
------------------------------------------10----------------------------------
-12b-10h12-10h12-12-10--10-8-7-7h8-7---------10-------------------------------
-------------------------------------7-9b-------9r--7hp9p7-7\5-5-5-4-5-4------
-------------------------------------------------------------------------5----
------------------------------------------------------------------------------
------------------------------------------------------------------------------

-----------------------x-x----------------------------------------------------
-----------------------x-x-7--------------------------------------------------
-----------------------x-x-7---------------------11p9p7----9p7p5-9br-9-11h12--
-5/7-7-5-4-4h5---------x-x-7-|0000000000000000|---------10--------------------
---------------5br-7br-x-x-5--------------------------------------------------
-----------------------x-x----------------------------------------------------
                             (the notes between the vertical bars are G1's)

--------------------------10--------------------------------------------------
-------10p8-10p8-10br-10b----10r-10--10p8p7-8p7p5------------10---------------
-11h12--------------------------------------------7-7h9p7-9b----9r-7----7-9p7-
---------------------------------------------------------------------9b-------
------------------------------------------------------------------------------
------------------------------------------------------------------------------


------------------------------------------------------------------------------
-------------------------------------------------------------------------8-9p-
----7-9p7----7\5-5-4h5p4-----7-5-4h5p4------4-5p4--5-7p5--7-9p7--9-11p9-------
-9b-------9--------------7-5-----------7-5------------------------------------
------------------------------------------------------------------------------
------------------------------------------------------------------------------


------------------------------------------------------------------------------
-8--8-10p8--10-12p10h12p10---------15---------------15------------------------
----------------------------12-14b----14r-14vvv-14b----14r--17-17--17p16p14---
------------------------------------------------------------------------------
------------------------------------------------------------------------------
------------------------------------------------------------------------------


------------------------------------------------------------------------------
-----------------------------------------13----------15-----------------------
-17p16p14-17p16p14-17/19-19vvv--12h14p12----12h14p12-----16-17-14vvv-14vvv-16-
------------------------------------------------------------------------------
------------------------------------------------------------------------------
------------------------------------------------------------------------------


---------------------17------------------------------------19-17-15-14--------
----15--15-13-15-17b----17r-17brp15----15-17brp15-15h17p15--------------------
-17---------------------------------17----------------------------------------
------------------------------------------------------------------------------
------------------------------------------------------------------------------
------------------------------------------------------------------------------


-14h15p14-14------------------------------------------------------------------
-------------17br-----------15----------17br-15h17p15-19-20-19-20-22----------
-------------------14h16p14----14h16p14------------------------------14h16p14-
------------------------------------------------------------------------------
------------------------------------------------------------------------------
------------------------------------------------------------------------------


-----------------14-15-12--12-14----------------------------------------------
-15----------17------------------15--15-17-13--13-15--------------13----------
----14h16p14-----------------------------------------16--12h14p12----12h14p12-
------------------------------------------------------------------------------
------------------------------------------------------------------------------
------------------------------------------------------------------------------


-----------------------15p12-15p12--------------------------------------------
-15----------13-------------^------13p12-13p12--------------------------------
----12h14p12----14-14-------|------------------14p12-14p12--------------------
----------------------------|-------------------------------------------------
----------------------------|-------------------------------------------------
----------------------------|-------------------------------------------------
                            (Something like this anyway, I have no idea)

I know, its not finished yet.  I´┐Żll finish it someday.  This should be enough to keep you busy for a while anyway.


-------10---------5--------3--------5-----------------------------------------
----10----10----5---5----3---3----5---5---------------------------------------
------------------------------------------------------------------------------
------------------------------------------------------------------------------
------------------------------------------------------------------------------
-10-----------5--------3--------5---------------------------------------------
 Last Verse (one just adds a few notes here and there, the other plays this)
Vind dit lied op:
bol.com
amazon.com

Copyrights:

Auteur: ?

Componist: ?

Publisher: Fatboy Records

Details:

Uitgegeven in: 1996

Taal: Engels

Deel je mening

Dit formulier wordt beschermd door reCAPTCHA en de Google Privacy Policy en Servicevoorwaarden zijn daarbij van toepassing.

0 Reacties gevonden