Misc

Misc - A Awsome Song I Made gitaar tab

Je score:
.....by kevin timmers

|-------------------------
|-------------------------
|-------------------------8 times
|-------------------5-7---
|-------7p5---7p5---5-7---
|--0--0-----5-----0-------

dont lift your finger
|------------------------
|------------------------
|-------------------4-4--
|---2-2-2p4---------4-4--4 times
|---2-2-----4-3-3-0-2-2--
|---0-0------------------

closing riff
|----------------------------
|----------------------------
|----------------------------
|------------------------5---play once
|------------6---5-------5---
|--0-0-0-5-7---7---7-6-5-3---

                    ___
                  -|o o|-
                  -|o o|-
                  -|o_o|-
                    |_|
                    |_|
                    |_|
                    |_|
                    |_|
                    |_|
                    |_|
                    |_|
                    |_|
                    |_|
                    |_|
               _____|_|
              / _   |_|       _
             / (_)  |_|      / |
            |      _____    /  |
            |     |     |      |
             \    |_____|     /
              \              /
               |   _____    |
              /   |     |    \
             /    |_____|     \
            |                  |
            |                  |
             \                /
              \______________/

ROCK ON!!!!!!!!
Vind dit lied op:
bol.com
amazon.com

Copyrights:

Auteur: ?

Componist: ?

Publisher: ?

Details:

Taal: Engels

Deel je mening

Dit formulier wordt beschermd door reCAPTCHA en de Google Privacy Policy en Servicevoorwaarden zijn daarbij van toepassing.

0 Reacties gevonden