Mägo De Oz

Mägo De Oz - El Angel Caido gitaar tab

Je score:
e|--5-3-------------------2-2-2-2-2-2-2---------------|
B|-------5-3-------2-2-2--3-3-3-3-3-3-3---------------|
G|-----------4^----2-2-2--2-2-2-2-2-2-2--1-1-1--------|
D|-----------------2-2-2-----------------2-2-2--------|
A|---------------------------------------2-2-2--------|
E|----------------------------------------------------|

e|--5-3-------------------2-2-2-2--2-2--------------------|
B|-------5-3-------2-2-2--3-3-3-3--3-3---------2-2-2-2-2-2|
G|-----------4^----2-2-2--2-2-2-2--2-2--1-1-1--2-2-2-2-2-2|
D|-----------------2-2-2----------------2-2-2--2-2-2-2-2-2|
A|--------------------------------------2-2-2-------------|
E|--------------------------------------------------------|

e|-3-3-3---5-3----------------------------------------|
B|-2-2-2--------5-3-------2-2-2-----------------------|
G|-3-3-3------------4^----2-2-2-----------------------|
D|------------------------2-2-2-----------------------|
A|----------------------------------------------------|
E|----------------------------------------------------|

Despu�s de eso entra el viol�n y es lo mismo hasta que entra la guitarra con distorci�n as�:

e|--------------------------------------------------------------------|
B|--------------------------------------------------------------------|
G|-------------------------2-4-2--------------------------------------|
D|---------2-4-2----0--0-4-------4----------------------------2-4-2---|
A|-0--0--4-------4--------------------------2-4-2----0--0--4--------4-|
E|----------------------------------0--0--4-------4-------------------|

Esta parte se pueden tocar en el verso, pero tambi�n estos acordes, y por ah� les va la letra:

la                              re
Si tu piensas que tan s�lo soy
mi                                la
el reflejo del fracaso, ver�s
lo equivocado que puedes estar
he utilizado 'tu palabra' muy bien

Mi negra alma con tu f� disfrac�
con la ayuda de tus siervos he hecho en Roma un burdel

la                                       re
mis diez cabezas hacen el amor
mi                             la                    re             la
contagiando hambre, SIDA, guerras y destrucci�n
la             re                  mi                     la
y desde hace alg�n tiempo en la pol�tica estoy.

(intro)

Si tu sue�as con verme caer
en el pozo de la intolerancia, haces muy bien,
mira en lo que he convertido Jerusal�n
se dan de hostias por un poco de f�.

Si oyes en el viento mi nombre pronunciar,
aunque intentes cayarlo, sabes que no podr�s,
las religiones por mi trabajan ya
la Santa Inquisici�n, integrismo musulm�n,
jud�os, sectas varias, testigos de Jehov�.

re                                la
Vivo encadenado a tu piel,
do                                                       sol
y soy el lado oscuro que cada hombre quiere esconder
soy lo que nadie deja ver
las calles son mi escuela donde ense�o a perder
vivo encadenado a tu piel
a tu piel
Vind dit lied op:
bol.com
amazon.com

Copyrights:

Auteur: ?

Componist: ?

Publisher: Locomotive Music

Details:

Uitgegeven in: 1996

Taal: Spaans

Komt voor op: Jésus de Chamberí (1996)

Deel je mening

Dit formulier wordt beschermd door reCAPTCHA en de Google Privacy Policy en Servicevoorwaarden zijn daarbij van toepassing.

0 Reacties gevonden