Incubus

Incubus - 04-the Warmth bass tab

Je score:
[Standard Tuning] [b] EADG

I think that the intro/verse might be slightly off� but HEY ***it! This is my first tab!.. but any comments will be helpful� THANKS J

[Guitar Solo]

Intro/Verse (the timing is crazy... but after you play it� it should be easy)
   G|----------------------------------------------------------------------
   D|----4h5p4-----2--2---2-------------------------------------------          [Intro: 3X]
   A|----------------------------3-3---3-3-(0)--------------------------          [verse: 4X]
   E|-------------------------------------------3-3----3-3---0-0--0----

Pre-Verse: (or whatever the hell you wanna call it�. Stop bitchin.. its only played like once)
   G|---------------------------------
   D|---------------------------------    (X2)
   A|---------------------------------
   E|--0-------0--0-------0--------

 Chorus (4X)
   G|-----------------------------------------------------------------------------------------------------------------------
   D|-----------------------------------------------------------------------------------------------------------------------
   A|-------7�7-7----7--7------3----3-3----3----3-------------------------------------------------------------------
   E|------------------------------------------------------3------3---3-------3---3-----------0----0----0---0------0�



Breakdown / Interlude (whatever it is you get the point)
   G|----------------------------------------------------------------------------------------------------
   D|----------------------------------------------------------------------------------------------------
   A|-----2�2-----2----22-----22---2---2---2�-2----2---2---22---22----2---2---2----------
   E|----------------------------------------------------

   G|----------------------------------------------------------------------------------------------------
   D|----------------------------------------------------------------------------------------------------
   A|-----2�2-----2----22-----22---2---2---2�-2----2---2---22---55----5---5---5---------
   E|----------------------------------------------------

   G|----------------------------------------------------------------------------------------------------
   D|----------------------------------------------------------------------------------------------------
   A|-----2�2-----2----22-----33---3---3---3�-2----2---2---22---55----5-5-5-5----------
   E|----------------------------------------------------
Vind dit lied op:
bol.com
amazon.com

Copyrights:

Auteur: ?

Componist: ?

Publisher: ?

Details:

Taal: Engels

Deel je mening

Dit formulier wordt beschermd door reCAPTCHA en de Google Privacy Policy en Servicevoorwaarden zijn daarbij van toepassing.

0 Reacties gevonden