Dub Pistols

Dub Pistols - Official Chemical bass tab

Je score:
Band: Dub Pistols
Song: Official Chemical
Tabd: TecTacToe
Tune: E,A,D,G


*This is one of my first songs I've tabbed...
I'm almost 100% sure it's right. He plays the
exact same riff through most of the song, just
for one little transition part. Here it goes*


Main Riff / Chorus / Bridge

G|----------------------|
D|----------------------|
A|---0---3---5---7--3---|
E|----------------------|


-OR-

G|------------------------|
D|------------------------|
A|------------------------|
E|---5---8---10---12--8---|


Small Transition @ 1:22

G|------------|
D|------------|
A|---9/--\7---|
E|------------|


-OR-


G|--------------|
D|--------------|
A|--------------|
E|---14/--\12---|
Vind dit lied op:
bol.com
amazon.com

Copyrights:

Auteur: ?

Componist: ?

Publisher: Outpost Recordings, A&M Records

Details:

Uitgegeven in: 2001

Taal: Engels

Deel je mening

Dit formulier wordt beschermd door reCAPTCHA en de Google Privacy Policy en Servicevoorwaarden zijn daarbij van toepassing.

0 Reacties gevonden