Caesars (Caesars Palace)

Caesars (Caesars Palace) - Sort It Out bass tab

Je score:
a perfect song for the beginners

bass comes in at 0:27

verse
----------------------------------------------------------------
----------------------------------------------------------------
-4-4-4-4-4-4-4-4-7-7-7-7-7-7-7-7--------------------------------
---------------------------------7-7-7-7-7-7-7-7-5-5-5-5-5-5-5-5

bridge(1:00)
----------------
----------------
----------------
-5-5-5-5-7-7-7-7

chorus
----------------------------------------------------------------
----------------------------------------------------------------
-4-4-4-4-4-4-4-4------------------------------------------------
-----------------5-5-5-5-5-5-5-5-2-2-2-2-2-2-2-1/2-2-2-2-2-2-2-2

hit 4 on the A-string then pause for 1 measure at 2:17

end by hitting 4 on the A-string again at 3:07

/Alex
Vind dit lied op:
bol.com
amazon.com

Copyrights:

Auteur: ?

Componist: ?

Publisher: ?

Details:

Taal: Engels

Deel je mening

Dit formulier wordt beschermd door reCAPTCHA en de Google Privacy Policy en Servicevoorwaarden zijn daarbij van toepassing.

0 Reacties gevonden