Blessid Union Of Souls

Blessid Union Of Souls - She Likes Me For Me gitaar tab

Je score:

Author/Artist: Blessed Union of Souls

Title: She Likes Me For Me

Album: Blessed Union of Souls

Transcribed by: Robert Karlsson

Email: bobbe@welho.com

-----------------|-----------------|-----------------|-----------------|------

-----------------|-----------------|-----------------|-----------------|------

-----------------|-----------------|-----------------|-----------------|------

---------4-----4-|---------4-----4-|---------6-----6-|-----------------|------

---------4-----4-|---------4-----4-|---------6-----6-|-----4---6p4-----|-4----

-2---2---2-----2-|-2---2---2-----2-|-4---4---4-----4-|-4h6---6-----6p4-|-2----

Verse 1:

-------------|-----------------|-----------------|-----------------|----------

-------------|-----------------|-----------------|-----------------|----------

-------------|-----------------|-----------------|-----------------|----------

-----4-----4-|---------4-----4-|---------6-----6-|-----------------|----------

-----4-----4-|---------4-----4-|---------6-----6-|-----4---6/8-----|----------

-2---2-----2-|-2---2---2-----2-|-4---4---4-----4-|-4h6---6---------|-2---2----

---------|-----------------|-----------------|------------------|-------------

---------|-----------------|-----------------|------------------|-------------

---------|-----------------|-----------------|-------------3h5/6|-------------

-4-----4-|---------4-----4-|---------6-----6-|---------3h6------|---------4---

-4-----4-|---------4-----4-|---------6-----6-|-----4h6----------|---------4---

-2-----2-|-2---2---2-----2-|-4---4---4-----4-|-4h6--------------|-2---2---2---

------|-----------------|-----------------|-----------------|-----------------

------|-----------------|-----------------|-----------------|-----------------

------|-----------------|-----------------|-----------------|-----------------

----4-|---------4-----4-|-6---6---6---6---|-6---------------|-----------------

----4-|---------4-----4-|-6---6---6---6---|-6---------------|-----------------

----2-|-2---2---2-----2-|-4---4---4---4---|-4---------------|-----------------

-------|-----|-----|-----|-----|-----|-----|-----|-----|----------------------

-------|-----|-----|-----|-----|-----|-----|-----|-----|----------------------

-------|-----|-----|-----|--6--|-----|-----|-----|-----|----------------------

-------|--4--|--8--|--6--|--6--|--4--|--8--|--6--|--6--|----------------------

-------|--4--|--8--|--6--|--4--|--4--|--8--|--6--|--6--|----------------------

-------|--2--|--6--|--4--|-----|--2--|--6--|--4--|--4--|----------------------

Chorus: F# Bbm G# C# F# Bbm G# G#

-------|-----|-----|-----|-----|-----|-----|-----|-----|----------------------

-------|-----|-----|-----|-----|-----|-----|-----|-----|----------------------

-------|-----|-----|-----|--6--|-----|-----|-----|-----|----------------------

-------|--4--|--8--|--6--|--6--|--4--|--3--|--6--|--6--|----------------------

-------|--4--|--8--|--6--|--4--|--4--|--3--|--6--|--6--|----------------------

-------|--2--|--6--|--4--|-----|--2--|--1--|--4--|--4--|----------------------

F# Bbm G# C# F# Fm G# G#

-----------------|-----------------|-----------------|-----------------|------

-----------------|-----------------|-----------------|-----------------|------

-----------------|-----------------|-----------------|-----------------|------

---------4-----4-|---------4-----4-|---------6-----6-|-----------------|------

---------4-----4-|---------4-----4-|---------6-----6-|-----4---6p4-----|------

-2---2---2-----2-|-2---2---2-----2-|-4---4---4-----4-|-4h6---6-----6p4-|-2----

Verse 2:

-------------|-----------------|-----------------|-----------------|----------

-------------|-----------------|-----------------|-----------------|----------

-------------|-----------------|-----------------|-----------------|----------

-----4-----4-|---------4-----4-|-6---------------|-----------------|----------

-----4-----4-|---------4-----4-|-6---------------|-----------------|----------

-2---2-----2-|-2---2---2-----2-|-4---------------|-----------------|-2---2----

---------|-----------------|-----------------|------------------|-------------

---------|-----------------|-----------------|------------------|-------------

---------|-----------------|-----------------|-------------3h5/6|-------------

-4-----4-|---------4-----4-|---------6-----6-|---------3h6------|---------4---

-4-----4-|---------4-----4-|---------6-----6-|-----4h6----------|---------4---

-2-----2-|-2---2---2-----2-|-4---4---4-----4-|-4h6--------------|-2---2---2---

------|-----------------|-----------------|------------------|----------------

------|-----------------|-----------------|------------------|----------------

------|-----------------|-----------------|------------------|----------------

----4-|---------4-----4-|-6---------------|------------------|----------------

----4-|---------4-----4-|-6---------------|------------------|----------------

----2-|-2---2---2-----2-|-4---------------|------------------|----------------

-----------------|-----------------|-----------------|-----------------|------

-----------------|-----------------|-----------------|-----------------|------

-----------------|-----------------|-----------------|-----------------|------

-----------------|-----------------|-----------------|-----------------|------

---------1-1-1-1-|-4-4-4-4-1-1-----|---------3-3-3-3-|-6-6-6-6-3-3-----|------

-2-2-2-2---------|-------------2-2-|-4-4-4-4---------|-------------4-4-|------

(3x)

-----------------|-----------------|-----------------|-----------------|------

-----------------|-----------------|-----------------|-----------------|------

-----------------|-----------------|-----------------|-----------------|------

---------1-1-1-1-|-4-4-4-4---------|-----------------|-6---------------|------

-2-2-2-2---------|---------1-1-----|---------3-3-6-6-|-----------------|------

-----------------|-------------2-2-|-4-4-4-4---------|-----------------|------

Chorus:

----------|-----|-----|-----|------------------|-----|-----|-----|-----|------

----------|-----|-----|-----|------------------|-----|-----|-----|-----|------

----------|-----|-----|-----|------------------|-----|-----|-----|-----|-8----

----------|--4--|--8--|--6--|------------------|--4--|--8--|--6--|-----|-8----

----------|--4--|--8--|--6--|------------------|--4--|--8--|--6--|-----|-6----

----------|--2--|--6--|--4--|-16\4-------------|--2--|--6--|--4--|-----|------

Interlude: F# Bbm G# F# Bbm G#

-------------|-----------------|-----------------|-----------------|----------

-------------|-----------------|-----------------|-----------------|----------

-----8-------|-8---8-----------|-----------------|-----------------|-6---6----

-----8-------|-8---8-------4---|-----------------|-----------------|-6---6----

-----6-------|-6---6-------4---|-----------------|-----------------|-4---4----

-------------|---------6---2---|-----------------|-----------------|----------

---------|-----------------|-----------------|-----------------|--------------

---------|-----------------|-----------------|-----------------|--------------

-6---6---|-6---------------|-----------------|-----------------|-8-------8----

-6---6---|-6---------------|-6---6---6---6---|-6---------------|-8-------8----

-4---4---|-4---------------|-6---6---6---6---|-6---------------|-6-------6----

---------|-----------------|-4---4---4---4---|-4---------------|--------------

-----|-----------------|-----------------|-----------------|---------------|--

-----|-----------------|-----------------|-----------------|---------------|--

-----|-8---8-----------|-----------------|-----------------|-8---8---8---8-|--

-----|-8---8-------4---|-----------------|-----------------|-8---8---8---8-|--

-----|-6---6-------4---|-----------------|-----------------|-6---6---6---6-|--

-----|---------6---2---|-----------------|-----------------|---------------|--

---------------|---------------|---------------|------------------------------

---------------|---------------|---------------|------------------------------

-8---8---8---8-|-8---8---8---8-|-8---8---8---8-|------------------------------

-8---8---8---8-|-8---8---8---8-|-8---8---8---8-|------------------------------

-6---6---6---6-|-6---6---6---6-|-6---6---6---6-|------------------------------

---------------|---------------|---------------|------------------------------

-----|-----|-----|-----|-----|-----|-----|-----|-----|------------------------

-----|-----|-----|-----|-----|-----|-----|-----|-----|------------------------

-----|--6--|-----|-----|-----|--6--|-----|-----|-----|------------------------

-----|--6--|--4--|--8--|--4--|--6--|--4--|--8--|--6--|------------------------

-----|--4--|--4--|--8--|--4--|--4--|--4--|--8--|--6--|------------------------

-----|-----|--2--|--6--|--2--|-----|--2--|--6--|--4--|------------------------

Solo: C# F# Bbm F# C# F# Bbm C#

-----|-----|-----|-----|-----|-----|-----|-----|-----|------------------------

-----|-----|-----|-----|-----|-----|-----|-----|-----|------------------------

-----|--6--|-----|-----|-----|--6--|-----|-----|-----|------------------------

-----|--6--|--4--|--8--|--4--|--6--|--8--|--6--|-----|------------------------

-----|--4--|--4--|--8--|--4--|--4--|--8--|--6--|-----|------------------------

-----|-----|--2--|--6--|--2--|-----|--6--|--4--|-----|------------------------

C# F# Bbm F# C# Bbm C#

-2---------------|-----------------|-----------------|-----------------|-2----

-2---------------|-----------------|-------------1---|-----------------|-2----

-3------/3---3---|-----------------|-1---------------|---------1-------|-3----

-4---------------|-----------------|-----------------|-----------------|-4----

-----------------|-----------------|-----------------|-----------------|------

-----------------|-----------------|-----------------|-----------------|------

Interlude 2:

-------------|-----------------|-----------------|-----------------|-2--------

-------------|-----------------|-------------4---|-----2-------1---|-2--------

---------3---|-----------------|-------------5---|-----3-------1---|-3--------

-------------|-----------------|-------------6---|-----4-------3---|-4--------

-------------|-----------------|-----------------|-----------------|----------

-------------|-----------------|-4---------------|-----------------|----------

---------|-----------------|-----------------|-----4-------2---|-6------------

---------|-----------------|-------------1---|---------1-------|-7------------

-----3---|-----------------|-1---------------|-----------------|-6------------

---------|-----------------|-----------------|-----------------|-8------------

---------|-----------------|-----------------|-----------------|--------------

---------|-----------------|-----------------|-----------------|--------------

-----|-----------------|-8---------------|-----------------|------------------

-7---|-----------------|-9---------------|-----------------|------------------

-----|-----6-----------|-8-----------8---|-----------------|------------------

-----|-----------------|-10--------------|-----------------|-4---4---4---4----

-----|-----------------|-----------------|-----------------|-4---4---4---4----

-----|-----------------|-----------------|-----------------|-2---2---2---2----

-|-----6-------4---|-----------------|-----------------|-----------------|----

-|-----6-------4---|-----------------|-----------------|-----------------|----

-|-----6-------5---|-----------------|-----------------|-----------------|----

-|-4---8-------6---|-----------------|-----------------|-4---4---4---4---|-4--

-|-4---8-------6---|-----------------|-----------------|-4---4---4---4---|-4--

-|-2---6-------4---|-----------------|-----------------|-2---2---2---2---|-2--

---6-------4---|-----------------|-----------------|--------------------------

---6-------4---|-----------------|-----------------|--------------------------

---6-------5---|-----------------|-----------------|--------------------------

---8-------6---|-6---6---6---6---|-6---------------|--------------------------

---8-------6---|-6---6---6---6---|-6---------------|--------------------------

---6-------4---|-4---4---4---4---|-4---------------|--------------------------

Chorus:

---------------|-----------------|-----------------|-----------------|--------

---------------|-----------------|-----------------|-----------------|--------

---------------|-----------------|-----------------|-----------------|--------

-4---4---4---4-|-4---3---4---6---|-6---6---6---6---|-6---6---6---6---|--------

-4---4---4---4-|-4---3---4---6---|-6---6---6---6---|-6---6---6---6---|--------

-2---2---2---2-|-2---1---2---4---|-4---4---4---4---|-4---4---4---4---|--------

Outro: (3x)

---------------|-----------------|-----------------|-----------------|--------

---------------|-----------------|-----------------|-----------------|--------

---------------|-----------------|-----------------|-----------------|--------

-4---4---4---4-|-4---3---4---6---|-6---6---6---6---|-6---------------|--------

-4---4---4---4-|-4---3---4---6---|-6---6---6---6---|-6---------------|--------

-2---2---2---2-|-2---1---2---4---|-4---4---4---4---|-4---------------|--------

Vind dit lied op:
bol.com
amazon.com

Copyrights:

Auteur: ?

Componist: ?

Publisher: ?

Details:

Taal: Engels

Deel je mening

Dit formulier wordt beschermd door reCAPTCHA en de Google Privacy Policy en Servicevoorwaarden zijn daarbij van toepassing.

0 Reacties gevonden