Blessid Union Of Souls

Blessid Union Of Souls - Light In Your Eyes bass tab

Je score:

Light in Your Eyes

by Blessid Union of Souls

Tabbed by: Shaun Geisert

Intro Verses 1 & 2 & 3

2X 4X

G:||---1---|---------|---------------------------------------------||

D:||--2-4--|--2-4-(2)|-----1--12-221-------------1--12-21------12-4||

A:||-2---2-|-2-------|--1-4--2------2-222-----1-4--2-----2-4-44----||

E:||-------|---------|-2------------------2--2---------------------||

Chorus 1

G:||---------------------------------------------------------||

D:||--1-2-4---1-2------1-2-3------12-4------2-6-4---2-6-4----||

A:||-2-------2---2----2-------4--4-----2--2--------2---------||

E:||--------------42-----------------------------------------||

Back to Verse 3

Chorus 2

G:||--------------------------------- ||

D:||--1-2-4---1-2------1-2-3------12-4||

A:||-2-------2---2----2-------4--4----||

E:||--------------42------------------||

Bridge 1

G:||--------------------------------------------||

D:||-6-------------------------------21-----12-4||

A:||---------76-4-2--22/4----1---------24-44----||

E:||---4-2-0-------------2-24-4-4420------------||

3X

G:||------2/4--2/4--2/4-------------||

D:||--------------------------2-1---||

A:||-2-222--------------2-222-----4-||

E:||--------------------------------||

G:||--------|--------------------------------------||

D:||-2-4-(2)|-----1--12-221-------------1--12-21---||

A:||2-------|--1-4--2------2-222-----1-4--2-----2-4||

E:||--------|-2------------------2--2--------------||

Bass Does Not Play Last Chorus

Vind dit lied op:
bol.com
amazon.com

Copyrights:

Auteur: Eliot Sloan, Tommy Sims

Componist: ?

Publisher: Goldenlane Records

Details:

Uitgegeven in: 1998

Taal: Engels

Deel je mening

Dit formulier wordt beschermd door reCAPTCHA en de Google Privacy Policy en Servicevoorwaarden zijn daarbij van toepassing.

0 Reacties gevonden