Blessid Union Of Souls

Blessid Union Of Souls - Ill Be Standing At The Edge Of The Earth gitaar tab

Je score:

This is not really my work, I was looking around for this, found it

on another site. This is, I guess, an elaboration of what I found.

I just added the picking and chords to it!

Chords:

D2 - xx0230

D7-9 - xx0210

G6 - 320030

G - 320033

F - 133211(or xx3211)

C - x32010

E - 022100

Am - 002210

Em - 022000

Cm - 335543

Bb - 113331

Ab - 455344

Gm - 355333

***For all picking see below***

intro: D2-G6-D2-G6-D2-G6-F-C

D7-9 G

I knew that this moment would come in time

D7-9 G

That I�d have to let go and watch you fly

D7-9 G F C

I know you�re coming back so why am I dying inside

D7-9 G

Are you searching for words that you can�t find

D7-9 G

Trying to hide your emotions but eyes don�t lie

D G F

Guess there�s no easy way to say goodbye

Am F

So I�ll be standing at the edge of the earth

G Em F G

Hoping that someday you�ll come back again

Am F

I�ll be standing at the edge of the earth

G Em F

Hoping for someday, someday

D7-9 G

Don�t misunderstand what I�m trying to say

D7-9 G

I don�t want to let you leave this way

D7-9 G F C

I want you to know that I stand right by your side

D7-9 G

And I know this may be

D7-9 G

The very last time that we see each other cry

D7-9 G F

But whatever happens know that I�ll. . .

Am F

I�ll be standing at the edge of the earth

G Em F

Hoping that one day you�ll come back again

Am F G

I�ll be standing at the edge of the earth hoping that someday

Em F E

You�ll come back to me

Am F

I�ll be praying for whatever it�s worth

G Em F E

Believing that one day you�ll come back to me

Am F

I�ll be standing at the edge of the earth

G

Hoping for someday

Am F

I know (I know) this may be

G Em F G Am

The very last time that we see each other cry

F G

But whatever happens know that I�ll. . .

Cm Ab

I�ll be standing at the edge of the earth

Bb Gm Ab

Hoping that one day you�ll come back again

Bb Cm Ab Bb

I�ll be standing at the edge of the earth hoping that someday

Gm Ab

You�ll come back to me

G Cm Ab

I�ll be praying for whatever it�s worth

Bb Gm Ab

Believing that one day you�ll come back again

G Cm Ab

I�ll be standing at the edge of the earth

Bb

Hoping for someday

Cm Ab

Waiting for someday, Believing in someday

Bb

Praying for someday, I�ll be. . .

Cm Ab

Longing for someday Clinging to someday

Bb

Cherishing someday, Ill be. . .

Cm Ab

Thinking of someday, Dreaming of someday

Bb

Wishing for someday, I�ll be. . .

Cm Ab

Living for someday Counting on someday

Bb

Knowing that one day. . .

I will see you

Intro Picking:

D2 G* F C

e/--------0----------|-------0----------|--------1----------|---0----

B/------3-----3---3--|-----3-----3---3--|------1-----1---1--|---1----

G/----2---------2----|---0---------0----|----2---------2----|---0----

D/--0----------------|------------------|--3----------------|---2----

A/-------------------|------------------|-------------------|---3----

E/-------------------|-3----------------|-------------------|--------

Verse Picking:

D7-9 G F C

e/--------0---------|--------3---------|-------1---------|-------0-

B/------1-----1---1-|------3-----3---3-|-----1-----1---1-|-------1-

G/----2---------2---|----0---------0---|---2---------2---|-----0---

D/--0---------------|------------------|-3---------------|---2-----

A/------------------|------------------|-----------------|-3-------

E/------------------|--3---------------|-----------------|---------

Chorus Picking:

Am F G Em F G

e/----------0----|----------1----|------------3----|--0--|--1--|-3-

B/--------1---1--|--------1---1--|----------3---3--|--0--|--1--|-3-

G/------2--------|------2--------|--------0--------|--1--|--2--|-0-

D/----2----------|----3----------|------0----------|--2--|--3--|-0-

A/--0------------|--3------------|-----------------|--2--|--3--|-2-

E/---------------|---------------|--3--------------|--0--|--1--|-3-

^^^^^ ^^^^^

\ /

those two chords

also sound good as

Power Chords.

Bridge: on the bridge/interlude whatever you wanna call it, you just

hit the chords that one time.

At the key change, just strum the chords, the pattern isn't hard at

all, just basically 8th note up, down strum. of course a little

elaboration never hurt anybody!

Well that's about it, any comments, questions, snide remarks, threats

to my life, send to redman_0321@yahoo.com

Thanks,

Andrew

Vind dit lied op:
bol.com
amazon.com

Copyrights:

Auteur: ?

Componist: ?

Publisher: ?

Details:

Taal: Engels

Deel je mening

Dit formulier wordt beschermd door reCAPTCHA en de Google Privacy Policy en Servicevoorwaarden zijn daarbij van toepassing.

0 Reacties gevonden