Blessid Union Of Souls

Blessid Union Of Souls - Hey Leonardo bass tab

Je score:

Song: Hey Leonardo

Artist: Dlessid Union of Souls

Tabber: Nitrox

|---------------|---------------|---------------|---------------|

|---------------|---------------|---------------|---------------|

|----------111--|----------444--|----------111--|---------------|

|2---2----------|4---4----------|2---2----------|4---4-----4-4--|

1 + 2 + 3 + 4 + 1 + 2 + 3 + 4 + 1 + 2 + 3 + 4 + 1 + 2 + 3 + 4 +

|---------------|---------------|---------------|---------------|

|---------------|---------------|---------------|---------------|

|----------111--|----------444--|---------------|---------------|

|2---2----------|4---4----------|2---2---012----|4---4---4---4--|

1 + 2 + 3 + 4 + 1 + 2 + 3 + 4 + 1 + 2 + 3 + 4 + 1 + 2 + 3 + 4 +

|---------------|---------------|----------------|---------------|

|---------------|---------------|----------------|---------------|

|---------------|---------------|----------------|---------------|

|2-2-----2-2----|4-4-----4-4----|2-2------2-2----|4-----------9\2|

1 + 2 + 3 + 4 + 1 + 2 + 3 + 4 + 1 + 2 + 3 + 4 + 1 + 2 + 3 + 4 +

|---------------|---------------|----------------|---------------|

|---------------|---------------|----------------|---------------|

|---------------|---------------|----------------|---------------|

|2-2-----2-2----|4-4-----4-4----|2-2------2------|4--------------|

1 + 2 + 3 + 4 + 1 + 2 + 3 + 4 + 1 + 2 + 3 + 4 + 1 + 2 + 3 + 4 +

|---------------|---------------|---------------|----5-5-8-8-5--|

|---------------|---------------|---------------|--------------6|

|----1-1-4-4-1--|----3-3-6-6-3--|----1-1-4-4-1--|---------------|

|2-2-----------2|4-4-----------4|2-2-----------2|4-4------------|

1 + 2 + 3 + 4 + 1 + 2 + 3 + 4 + 1 + 2 + 3 + 4 + 1 + 2 + 3 + 4 +

|---------------|---------------|---------------|---------------|

|---------------|---------------|---------------|------6--------|

|----1-1-4-4-1--|----3-3-6-6-3--|----1-1-4-4-1--|---------------|

|2-2-----------2|4-4-----------4|2-2-----------2|4--------------|

1 + 2 + 3 + 4 + 1 + 2 + 3 + 4 + 1 + 2 + 3 + 4 + 1 + 2 + 3 + 4 +

|---------------|---------------|---------------|---------------|

|---------------|---------------|---------------|---------34346-|

|----------111--|----------444--|----------111--|--------4------|

|2---2----------|4---4----------|2---2----------|4---4----------|

1 + 2 + 3 + 4 + 1 + 2 + 3 + 4 + 1 + 2 + 3 + 4 + 1 + 2 + 3 + 4 +

|---------------|---------------|---------------|---------------|

|---------------|---------------|---------------|---------------|

|----------111--|----------444--|---------------|---------------|

|2---2----------|4---4----------|2---2----01-2--|4---4---4---4--|

1 + 2 + 3 + 4 + 1 + 2 + 3 + 4 + 1 + 2 + 3 + 4 + 1 + 2 + 3 + 4 +

|---------------|---------------|---------------|---------------|

|---------------|---------------|---------------|---------------|

|----------111--|--------11/----|----------111--|---------------|

|2---2----------|4---4----------|2---2----------|4---4----------|

1 + 2 + 3 + 4 + 1 + 2 + 3 + 4 + 1 + 2 + 3 + 4 + 1 + 2 + 3 + 4 +

|---------------|---------------|---------------|---------------|

|---------------|---------------|---------------|---------------|

|6---6-566-4----|--------------4|4-4-4-4-4------|---------------|

|------------2--|----------4-6--|---------------|4-4-4-4-4------|

1 + 2 + 3 + 4 + 1 + 2 + 3 + 4 + 1 + 2 + 3 + 4 + 1 + 2 + 3 + 4 +

|---------------|---------------|---------------|---------------|

|---------------|---------------|---------------|---------------|

|6---6-566-4----|---------------|6-6-6-6-6-6-6-6|6-6-6-6-6-6-6/4|

|------------2--|---------------|---------------|---------------|

1 + 2 + 3 + 4 + 1 + 2 + 3 + 4 + 1 + 2 + 3 + 4 + 1 + 2 + 3 + 4 +

|---------------|---------------|---------------|---------------|

|---------------|---------------|---------------|---------------|

|4---4----------|1---1----------|4---4----------|1---1----------|

|----------222--|----------222--|----------222--|----------444--|

1 + 2 + 3 + 4 + 1 + 2 + 3 + 4 + 1 + 2 + 3 + 4 + 1 + 2 + 3 + 4 +

|---------------|---------------|---------------|---------------|

|---------------|---------------|---------------|---------------|

|4---4----------|1---1----------|4---4----------|---------------|

|----------222--|----------222--|----------222--|4-4-4----------|

1 + 2 + 3 + 4 + 1 + 2 + 3 + 4 + 1 + 2 + 3 + 4 + 1 + 2 + 3 + 4 +

|---------------|---------------|---------------|---------------|

|---------------|---------------|---------------|---------------|

|---------------|---------------|---------------|---------------|

|----1\2--------|----3\4--------|----1\2--------|---------------|

1 + 2 + 3 + 4 + 1 + 2 + 3 + 4 + 1 + 2 + 3 + 4 + 1 + 2 + 3 + 4 +

(from freet 6 to 11 (don't pick the 11th freet) and then up.)

|---------------|---------------|---------------|---------------|

|---------------|---------------|---------------|---------------|

|---------------|---------------|---------------|------6\11/----|

|----1\2--------|----3\4--------|----1\2--------|----4----------|

1 + 2 + 3 + 4 + 1 + 2 + 3 + 4 + 1 + 2 + 3 + 4 + 1 + 2 + 3 + 4 +

|---------------|---------------|---------------|---------------|

|---------------|---------------|---------------|---------------|

|----------1----|---------------|----------1----|---------------|

|2-2-2-2-2------|4-4-4-4-4-4-4--|2-2-2-2-2------|4---4-4-4-4----|

1 + 2 + 3 + 4 + 1 + 2 + 3 + 4 + 1 + 2 + 3 + 4 + 1 + 2 + 3 + 4 +

|---------------|---------------|---------------|---------------|

|---------------|---------------|---------------|---------34346-|

|----------111--|----------444--|----------111--|--------4------|

|2---2----------|4---4----------|2---2----------|4---4----------|

1 + 2 + 3 + 4 + 1 + 2 + 3 + 4 + 1 + 2 + 3 + 4 + 1 + 2 + 3 + 4 +

|---------------|---------------|---------------|---------------|

|---------------|---------------|---------------|---------------|

|----------111--|----------444--|---------------|---------------|

|2---2----------|4---4----------|2---2---012----|4---4---4---4--|

1 + 2 + 3 + 4 + 1 + 2 + 3 + 4 + 1 + 2 + 3 + 4 + 1 + 2 + 3 + 4 +

|---------------|---------------|---------------|---------------|

|---------------|---------------|---------------|---------------|

|---------------|---------------|---------------|11/------------|

|2---2---012----|4---4---4---4--|2---2---012----|---------------|

1 + 2 + 3 + 4 + 1 + 2 + 3 + 4 + 1 + 2 + 3 + 4 + 1 + 2 + 3 + 4 +

|---------------|---------------|---------------|---------------|

|---------------|---------------|---------------|---------------|

|---------------|---------------|---------------|11/------------|

|2---2---012----|4---4---4---4--|2---2---012----|---------------|

1 + 2 + 3 + 4 + 1 + 2 + 3 + 4 + 1 + 2 + 3 + 4 + 1 + 2 + 3 + 4 +

Vind dit lied op:
bol.com
amazon.com

Copyrights:

Auteur: ?

Componist: ?

Publisher: Legend Entertainment Corporation

Details:

Taal: Engels

Deel je mening

Dit formulier wordt beschermd door reCAPTCHA en de Google Privacy Policy en Servicevoorwaarden zijn daarbij van toepassing.

0 Reacties gevonden