Bis!

Bis! - Powerpuff Girls Ending Theme bass tab

Je score:
Song Title: Powerpuff Girls (Ending Theme)
Artist: Bis
Album: Cartoon Medley
Tabbed by:  kjs (BassAce77@hotmail.com)
Notes: This song can be heard while the credits roll for the 'Powerpuff Girls'
       cartoon on Cartoon Network.  Tabs with an asterik (*) in front of them
       are actually an octave higher than the actual note in the song.  I am
       not familiar with the band Bis, so I was unable to determine whether it
       whether was played drop-tuned or on a bass with more than 4 strings.
       It is only 2 notes, so it would not make much of a difference either way.
       Look for my other Powerpuff Girls bass tab for 'Love makes the world
       go round' :-)  07/27/00


Blossom, commander and the leader   Bubbles, she is the joy and the laughter

G:|-------------------------------|-------------------------------|-
D:|----------------------------1--|----------------------------1--|-
A:|--3---------------1------------|--3---------------1------------|-
E:|-------------3-----------------|-------------3-----------------|-


Buttercup, she is the toughest fighter.  powerpuff save the day

G:|-------------------------------|-------------------------------|-
D:|----------------------------1--|*1*1------------------1--------|-
A:|-3-3--------------1------------|-------------1-----1-----------|-
E:|-------------3-----------------|-------1--3-----3--------------|-

{Refrain}x2

    Fighting crime...     trying to save the world

G:|-------------------------------|-------------------------------|-
D:|---------------2----3-2---2----|--------------3-3-3-3-3-3-3-3--|-
A:|--3-3--3-3--3----3------3---3--|--1---1---1--------------------|-
E:|-------------------------------|-------------------------------|-


    Here they come just in time... the power-puff girls

G:|-------------------------------|-------------------------------|-
D:|---------------2----3-2---2----|--------------3-3-3-3-3-3-3-3--|-
A:|--3-3--3-3--3----3------3---3--|--1---1---1--------------------|-
E:|-------------------------------|-------------------------------|-

{end refrain}
Vind dit lied op:
bol.com
amazon.com

Copyrights:

Auteur: ?

Componist: ?

Publisher: ?

Details:

Taal: Engels

Deel je mening

Dit formulier wordt beschermd door reCAPTCHA en de Google Privacy Policy en Servicevoorwaarden zijn daarbij van toepassing.

0 Reacties gevonden