Akos

Akos - Keresem Az Utam gitaar tab

Je score:
�kos: Keresem Az Utam

capo: II

intro
  *   .   .   .   *   .   .   .   *   .   .   .   *   .   .   .
|-----------------------------------------------------------------|
|-----5-----5---5---------------------5-----5---5-----------------|
|-----2-----2---4---------------------2-----2---4-----------------|
|-----4-----4---2---------------------4-----4---2-----------------|
|-----------------------------------------------------------------|
|-2-------------4-----------------2-------------4-----------------|

Verse:
  *   .   .   .   *   .   .   .   *   .   .   .   *   .   .   .
|-----------------------------------------------------------------|
|-----5-----5---5-------------5-------5-----5---5-------5-------5-|
|-----2-----2---2-----------2---------2-----2---2-------2-----2---|
|-----4-----4-------------4-----------4-----4---------------4-----|
|---------------5-------5-----------------------5-------2---------|
|-2-----------------------------5-2-------2-----------------------|


  *   .   .   .   *   .   .   .   *   .   .   .   *   .   .   .
|---------------------------------------------------2-------------|
|-----5-----5---5-------5-------4---------------5-------5-------5-|
|-----2-----2---2-------4-------2---------------------------2-----|
|-----4-----4---------x---------4-----------------------------4---|
|---------------5-------4-------2-------------2-------2-----------|
|-2-------2-------------------------------------------------------|


Verse:
  *   .   .   .   *   .   .   .   *   .   .   .   *   .   .   .
|-----------------------------------------------------------------|
|-----5-----5---5-------------5-------5-----5---5-------5---------|
|-----2-----2---2-----------2---------2-----2---2-------2---------|
|-----4-----4-------------4-----------4-----4---------------------|
|---------------5-------5-----------------------5-------2---------|
|-2-----------------------------5-2-------2-----------------------|

  *   .   .   .   *   .   .   .   *   .   .   .   *   .   .   .
|---------------------------------------------------2-------------|
|-----5-----5---5-------5-------4---------------5-------5------(5)|
|-----2-----2---2-------4-------2---------------------------2-----|
|-----4-----4---------x---------4-----------------------------4---|
|---------------5-------4-------2-----------2---------2-----------|
|-2-------2-------------------------------------------------------|


Chorus:
  *   .   .   .   *   .   .   .   *   .   .   .   *   .   .   .
|-----------------------------------------------------------------|
|-----5-----5---5-----5---5---5-------5-----5---5---5-----5---5---|
|-----2-----2---4---4-----4---4p2-----2-----2---4---4-----4---4-2-|
|-----4-----4---2---2---2---------4---4-----4---2---2-----2-------|
|-5-------5----------------------------------(4)------------------|
|---------------------------------2-------------4-------4---------|


  *   .   .   .   *   .   .   .   *   .   .   .   *   .   .   .
|-----------------------------------------------------------------|
|-----5-----5---5-------------5-------5-----5---5---5-----5-------|
|-----2-----2---4---4p2---4---4-------2-----2---2---2-----4---4---|
|-4---------4---2-------2-------------6-----6---6---6-----6---6-4-|
|-5-------5-------------------------------------------------------|
|---------------------------------2-------2-------------2---------|


Chorus:
  *   .   .   .   *   .   .   .   *   .   .   .   *   .   .   .
|-----------------------------------------------------------------|
|-----5-----5---5-----5-------5-------------5---5---5-----5---5---|
|-----2-----2---4-----4-2-----4p2-----2-----2---4---4-----4---4-2-|
|-----4-----4---2---2-------2-----4---4-----4-4-2---2-----2-------|
|-5-------5-------------------------------------------------------|
|---------------------------------2-------------4-------4---------|

  *   .   .   .   *   .   .   .
|---------------------------------|
|-----5-----5---5---------5---5---|
|-----2-----2---4---4-----4---4---|
|-----4-----4---2-------2---------|
|-5-------5----------(2)----------|
|---------------------------------|

  *   .   .   .   *   .   .   .   *   .   .   .   *   .   .   .
|-----------------------------------------------------------------|
|-----5-----5---5---------------------5-----5---5-----------------|
|-----2-----2---4---------------------2-----2---4-----------------|
|-----4-----4---2---------------------4-----4---2-----------------|
|-----------------------------------------------------------------|
|-2-------2-----4-----------------2-------2-----4-----------------|


Verse:
  *   .   .   .   *   .   .   .   *   .   .   .   *   .   .   .
|-----------------------------------------------------------------|
|-----5-----5---5-------------5-------5-----5---5---5---5---------|
|-----2-----2---2-----------2---------2-----2---2---2---2-------2-|
|-----4-----4---4---------4-----------4-----4-----------------4---|
|---------------5-------5-----------------------5-------2---2-----|
|-2-------------------------------2-------2-----------------------|


  *   .   .   .   *   .   .   .   *   .   .   .   *   .   .   .
|---------------------------------------------------2-------------|
|-----5-----5---5---5---5---5---4---------------5-------5-------5-|
|-----2-----2---2---2---4---4---2-------------2-------------2-----|
|-----4-----4-------------------4-----------4-----------------4---|
|---------------5---5---4-------2---------------------2-----------|
|-2-------2-------------------------------------------------------|


Verse:
  *   .   .   .   *   .   .   .   *   .   .   .   *   .   .   .
|-----------------------------------------------------------------|
|-----5-----5---5-------------5-------5-----5---5---5---5---------|
|-----2-----2---2-----------2---------2-----2---2---2---2-------2-|
|-----4-----4-------------4-----------4-----4-----------------4---|
|---------------5-------5-----------------------5-------2---2-----|
|-2-------2-----------------------2-------2-----------------------|

  *   .   .   .   *   .   .   .   *   .   .   .   *   .   .   .
|---------------------------------------------------2-------------|
|-----5-----5---5---5---5---5---4---------------5-------5-------5-|
|-----2-----2---2---2---4---4---2-------------2-------------2-----|
|-----4-----4-------------------4-----------4-----------------4---|
|---------------5---5---4-------2---------------------2-----------|
|-2-------2-------------------------------------------------------|


Chorus:
...


Bridge:
B, x42452, A,
B, x42452, A, G,

...

Tr: PD. 2003
Vind dit lied op:
bol.com
amazon.com

Copyrights:

Auteur: ?

Componist: ?

Publisher: ?

Details:

Taal: Hongaars

Deel je mening

Dit formulier wordt beschermd door reCAPTCHA en de Google Privacy Policy en Servicevoorwaarden zijn daarbij van toepassing.

0 Reacties gevonden