Acoustic Alchemy

Acoustic Alchemy - Rainwatching W.i. gitaar tab

Je score:
Acoustic Alchemy-1998-Positive Thinking-Rainwatching W.I.




Acoustic Alchemy
1998-Positive Thinking
Rainwatching W.I.
Transcribed by Daniel Ocon

Rhy. 1 Guitar 1

E-------------------------------------------------------------------------
B----------5-----4-------------5-----4-------------5-----4----------------
G---------------------4-------------------4-------------------4-----------
D-------6-----6-----6---6---6-----6-----6---6---6-----6-----6---6---------
A-----4-------------------4-------------------4---------------------------
E---4---------------------------------------------------------------------

E-------------------------------------------------------------------------
B--------5-----4----------------------------------------------------------
G-------------------4-----------------------------------------------------
D-----6-----6-----6---6---------------------------------------------------
A---4---------------------------------------------------------------------
E-------------------------------------------------------------------------

Solo 1 Guitar 2

E-------------------------------------------------------------------------
B------------------9-9-9-7-5-7-----------------------9-9-9-7-5-7----------
G---9-9-9-8-6------------------8-8----9-9-9-8-6------------------8-8------
D-------------7---------------------------------7-------------------------
A-------------------------------------------------------------------------
E-------------------------------------------------------------------------


E-------------------------------------h--p--------------------------------
B------------9-----------------9-10--9-10-9----sl-------------------------
G---9-9-9-11----------9-9-9-11----------------9--11--11-------------------
D---------------11--------------------------------------------------------
A-------------------------------------------------------------------------
E-------------------------------------------------------------------------

Rhy. 2 Guitar 1

E--------5-----4----------------------------------------------------------
B-------------------5-----------------------------------------------------
G-----6-----6-----6---6---------------------------------------------------
D---4---------------------------------------------------------------------
A-------------------------------------------------------------------------
E-------------------------------------------------------------------------

Play Rhy. 2 four times

Solo 2 Guitar 2

E-------------------------------------------------------------------------
B------------------9-9-9-7-5-7--------------------------------------------
G---9-9-9-8-6------------------8-8---------8----9-9-9-8-6-----------------
D-------------7-----------------------9-11----------------7---------------
A-------------------------------------------------------------------------
E-------------------------------------------------------------------------


E-------------------------------------------------------------------------
B---9-9-9-7-5-7-----------------9-----------------9-----------------------
G---------------8-8----9-9-9-11----------9-9-9-11---------------p-h-------
D----------------------------------11-----------------11-11---11-9-11--11-
A-------------------------------------------------------------------------
E-------------------------------------------------------------------------

Solo 3 Guitar 2

E----------------------h---------h----------------------------------------
B---12--12--12--12----8-10--10--7-8--8------------10--10----12-13-12-10---
G---12--12--12--12----9------9--9----9----9-11-12--9---9------------------
D-------------------------------------------------------------------------
A-------------------------------------------------------------------------
E-------------------------------------------------------------------------


E-----------------------------------------------10------------------------
B--------h--------12--12--------------12-10--------13----10---p-----------
G---12-11-12-9----12--12--12---h---12-------11--------12----12-11---------
D----------------------------12-14----------------------------------------
A-------------------------------------------------------------------------
E-------------------------------------------------------------------------


E--------------------------------------------------------h---------h------
B---------p---------------h-----------12--12--12--12----8-10--10--7-8--8--
G----9--12-9------11----11-12-11-9----12--12--12--12----9------9--9----9--
D---10-------12-9---------------------------------------------------------
A-------------------------------------------------------------------------
E-------------------------------------------------------------------------


E---------------------------h--p--p---------------------------------------
B-----------10-10---12-13-12-13-12-10---------h--------12--12-------------
G---9-11-12--9--9---------------------12----11-12-9----12--12--12---h-----
D-----------------------------------------------------------------12-14---
A-------------------------------------------------------------------------
E-------------------------------------------------------------------------


E----------------15-14-12-------------------------------------------------
B------12-10--------------15-12----------p---------------h--p--p----------
G---12-------11-----------------14-12--12-11------11---11-12-11-9---------
D--------------------------------------------12-9-------------------------
A-------------------------------------------------------------------------
E-------------------------------------------------------------------------

Solo 4 Guitar 2

E-----------------------------------------------------------------h--p----
B------------------------------------------------------------12-10-12-10--
G---9-9-9-9--11-12----9-9-9-9--11-12----9-9-9-9--11-12-12-----------------
D-------------------------------------------------------------------------
A-------------------------------------------------------------------------
E-------------------------------------------------------------------------

Solo 5 Guitar 2

E-------------------------------------------------------------------------
B------------------9-9-9-7-5-7--------------------------------------------
G---9-9-9-8-6------------------8-8---------8----9-9-9-8-6-----------------
D-------------7-----------------------9-11----------------7---------------
A-------------------------------------------------------------------------
E-------------------------------------------------------------------------


E-------------------------------------------------------------------------
B---9-9-9-7-5-7-----------------9-----------------9-----------------------
G---------------8-8----9-9-9-11----------9-9-9-11-------------------------
D----------------------------------11-------------------------------------
A-------------------------------------------------------------------------
E-------------------------------------------------------------------------

End!
Vind dit lied op:
bol.com
amazon.com

Copyrights:

Auteur: ?

Componist: ?

Publisher: GRP Records, Inc.

Details:

Uitgegeven in: 1998

Taal: Engels

Deel je mening

Dit formulier wordt beschermd door reCAPTCHA en de Google Privacy Policy en Servicevoorwaarden zijn daarbij van toepassing.

0 Reacties gevonden