Blink 182
Whats My Age Again Live (Guitar tab)

What�s my age again?-Blink182
by edoardo caliaro (verona italy) e-mail
Good work and best wishes!!!!!!
INTRO FOR ALL (enema of the state)
e-----------------------------------------------------------------------------
b-------11------11-------11--------11-----------------------------------------
g----11------11-------11--------11--------------------------------------------
d--9--------------------------------------------------------------------------
a----------9------------------------------------------------------------------
e-------------------9--------11-----------------------------------------------
INTRO FOR ALL (The Mark, Tom, and Travis Show)
e-----------------------------------------------------------------------------
b-------13-------13-----13-----13---------------------------------------------
g----13-------13------13-----13-----------------------------------------------
d-11--------------------------------------------------------------------------
a----------11-----------------------------------------------------------------
e-------------------11-----13-------------------------------------------------

Copyrights

Auteur: ?
Componist: ?
Uitgever: ?

Meer details

Taal: Engels

www.muzikum.eu