Eric Clapton
Wonderful Tonight Easy Version (Guitar tab)

Here is my version of Wonderful Tonight by Eric Clapton.
I was playing along and just came up with this and thought it sounded pretty good.
Just play whatever intro you want, and play this during the verses.
This repeats in each verse, once you start playing you will hear it and figure out the pattern
for the rest of the song. Enjoy

G D C D
It's late in the evening.....................
e-3-------2-------2-------0-------0-------2-------2-------3-------3-------2-------I
B---0---3---3---3---3---3---1---1---1---3---3---3---3---3---0---0---0---3---3---3-I
G-----0-------2-------2-------0-------0-------2-------2-------0-------0-------2---I

and then she asks me.......
e-2-------0-------0-------2-------2-------0-------0-------0-------0-------3-------I
B---3---3---1---1---1---3---3---3---3---0---0---0---0---1---1---1---1---1---0---3-I
G-----2-------0-------0-------2-------0-------0-------0-------0-------0-------0---I


e-2-------0-------0-------0-------0------2-------2-----3--------------------------I
B---3---3---1---1---1---1---1---1--1---3---3---3---3------------------------------I
G-----2-------0-------0-------0------0-------2-------2----------------------------I

Copyrights

Auteur: ?
Componist: ?
Uitgever: ?

Meer details

Taal: Engels

www.muzikum.eu