Bob Marley
Them Belly Full Ver 2 (Bass tab)

BOB MARLEY and THE WAILERS

THEM BELLY FULL (but we hungry)

album: NATTY DREAD
INTRO
G ||-------------------------------------------------------||
D ||---------5----7------7-5--------7-----5--------7-5-----||
A ||---7---5----7------------7----7-----5------3--------7--||
E ||7----------------------------------------3-------------||

CHORUS
G ||--------------------------------------------------||
D ||--------------------------------------------------||
A ||---7-5----------------------7-5----------8-8-7----||
E ||-O-----7--5-5---3-3-2-----O------7--5-5-----------||


"We're gonna dance..."
G ||----------------------------------------------||
D ||-------------------------7---------7----------||
A ||-O-5-O-5------------5------7-O-------7-O------||
E ||-----------33333------------------------------||


"Forget your troubles..."
G ||----------------------------------------------||
D ||-------------------7--------7-----------------||
A ||-O-555--------5------7-O------7-O-------------||
E ||--------333-----------------------------------||

"We're gonna chuck...."
G ||----------------------------------------------||
D ||------------------------7---------------------||
A ||-O-555--------------------7-O-----------------||
E ||--------333----3--5---------------------------||

corrections and stuff to:
c.duffy@ireland.com

Copyrights

Auteur: ?
Componist: ?
Uitgever: ?

Meer details

Taal: Engels

www.muzikum.eu