Flaw
Best I Am (Guitar tab)

-------------------------------------------------------------------------------
Best I Am - Flaw
-------------------------------------------------------------------------------

By:Will
wilthethril11@aol.com

Intro and Verse

e|---------------------------------------------------------------------------|
B|---------------------------------------------------------------------------|
G|------------9-----9p7---------------------9------9p7-------------------|
D|-----7------------------5-----------7-------------------5----------------|
A|--5----5------5-----------------5-----5------5--------------------------|
E|---------------------------------------------------------------------------|

e|---------------------------------------------------------------------------|
B|---------------------------------------------------------------------------|
G|------4------6------7--6-----------------6--------7------6--------------|
D|---------4------4--------------------4--------4-------4------4----------|
A|---2-----------------------------2----------------------------------------|
E|---------------------------------------------------------------------------|


These 2 chords played during chorus and bridge

e|---------------------------------------------------------------------------|
B|---------------------------------------------------------------------------|
G|-----7---------4----------------------------------------------------------|
D|-----7---------4----------------------------------------------------------|
A|-----5---------2----------------------------------------------------------|
E|---------------------------------------------------------------------------|

Copyrights

Auteur: ?
Componist: ?
Uitgever: ?

Meer details

Taal: Engels

www.muzikum.eu