The Frogs
Now You Know Youre Black (Guitar tab)

Date: Mon, 01 Dec 1997 15:46:49 PST
From: Jesse Alora
Subject: TAB: Now You Know You're Black by The Frogs

NOW YOU KNOW YOU'RE BLACK - from "Racially Yours"
written & recorded by THE FROGS - tab by Jesse Alora
The Frogs Web Site: www.geocities.com/Broadway/7100


Bass:
G---------------------------------------
D---------------------------------------
A----7--5-3-2-3--0-2-3-2----------------
E----0--0-0-0-0--0-0-0-0----------------

Guitar:
E---------------------------------------
B---6-----------------------------------
G---7----------------------5-3-2-3------
D---7-----------------------------------
A---------------------------------------
E---------------------------------------
Have you ever been h-i-t

E---------------------------------------
B---------------------------------------
G---3---3---3-2-0-2---2---2--3-2-0-2----
D---------------------------------------
A---------------------------------------
E---------------------------------------
In the f-a-c-e with a snowball?

E--------------------------------------
B---6----------------------------------
G---7-------------------0-2-3-2--------
D---7----------------------------------
A--------------------------------------
E--------------------------------------
You could use a facewash

E--------------------------------------
B--------------------------------------
G---2-2--0---2-----3-------------------
D-------------------------0------------
A-------------------------0------------
E-------------------------5------------
Now you know you're black

What was that old story
About Jesus ago so long
They always talked about his father
Yet they got the color wrong
I had a white a maid
A butler a slave
Demands will be made
Reperations will be paid
What was that old story
About Jesus ago so long
They always talked about his father
Yet they got the color wrong
Have you ever been hit
In the face with a snowball
You could use a facewash
Now you know you're black
Now you know you're black
Now you know you're



tab by Jesse Alora

Copyrights

Auteur: ?
Componist: ?
Uitgever: ?

Meer details

Taal: Engels

www.muzikum.eu