Econoline Crush

Econoline Crush
Make It Right (Bass tab)

song: Make It Right
band: Econoline Crush
album: Brand New History
transcribed by: Jon "Mr.Big" Makokis
email corrections or comments to: metallikop25@hotmail.com

intro:x2
G|---------------------------------------------------------|
D|---------------------------------------------------------|
A|-----------------7--------------------------7------------|
E|--0---7-10-7-7------7-10-7-7\0---7-10-7-7------7-10-7-7--|

verse:x8
G|--------------|
D|--------------|
A|--------------|
E|--0---/7---\--|

pre-chourus:x2
G|--------------------------------------------|
D|--------------------------------------------|
A|--------------------------------------------|
E|--3h5-3h5-3h5-3h5-6-6-3h5-3h5-3h5-3h5--6-3--|

chorus:x2
G|----------------------------------------------------------|
D|----------------------------------------------------------|
A|-----------------7--------------------------7-------------|
E|--0---7-10-7-7------7-10-7-7\0---7-10-7-7------7-10-7-7\--|

verse:x8

pre-chourus:x2

chorus:x2

solo:x4
G|-------------------------------------------|
D|-------------------------------------------|
A|----5---5---5---5---5----------------------|
E|--0---0---0---0---0---0-3-0-3-0-5-0-5-0-5--|

pre-chourus:x1

pre-chourus(b):x1
G|-----------------------------------|
D|-----------------------------------|
A|-----------------------------------|
E|--3h5-3h5-3h5-3h5-6-6-3h5-3h5-3h5--|

chorus(b):x2
G|-------------------------------------------------------------------|
D|---------------------------------------------------------------7\--|
A|-----------------7--------------------------7--------------7-9-----|
E|--0---7-10-7-7------7-10-7-7\0---7-10-7-7------7-10-7-7-10---------|

In this chorus(b), the bass does different fills at the end of the riff,
so do whatever you want.

outro:x4
G|-------------------------------------------------|
D|------------------------------------6h7-9p7-6----|
A|--5h7777777-6h7777777-6h7777777-6h7-----------7--|
E|-------------------------------------------------|

It sounds like the outro is played over the chorus riff. You decide.

ending:x1
G|-----------------|
D|-----------------|
A|--7-7------------|
E|------7-10-7-7\--|

HAVE FUN!!!!

OptimusPrime

Toegevoegd door OptimusPrime op zo 01 dec, 2002 9:45 am

Auteur: ?
Componist: ?
Uitgever: ?
Taal: Engels

Reacties

CommonCrawl [Bot]

Volg Muzikum