Econoline Crush

Econoline Crush
You Dont Know What Its Like (Bass tab)

"You Don't Know What it's Like"
Econoline Crush (from their upcoming, ass-kicking album)
Bass Tab by SaTaN's UnDeRpAnTs (goldengrrl@hotmail.com)

Standard Tuning

the bass comes in 2 measures after the guitar intro

Intro/verse

G-------------------------
D-------9/11-9------------ repeat 5x
A----------------9-9-7----
E-9-9---------------------

Chorus

G-------------------------------------------------------
D---------------------------------9/11-9---------------- repeat 4x
A----------------------7777-7777----------11-9-7--------
E-9999-9999-9999-9999------------------------------9-7-4

Bridge

G--------------------------------------------
D--7-7--7-7----6-6--6-6--9-9--9-9--9-9--9-9-- repeat 4x
A--------------------------------------------
E--------------------------------------------

Intro/verse
Chorus
Verse
Chorus
Bridge
Chorus till end

please direct all your comments, questions, and/or other forms of harassment
to
goldengrrl@hotmail.com

OptimusPrime

Toegevoegd door OptimusPrime op zo 01 dec, 2002 9:45 am

Auteur: ?
Componist: ?
Uitgever: ?
Taal: Engels

Reacties

CommonCrawl [Bot]

Volg Muzikum