Whitesnake
Dont Break My Heart Again (Guitar tab)

Dont Break My Heart Again By Whitesnake Tabbed By Terry Stephens

E-------------------------------------------
B-------------------------------------------
G----5-7-7---------5-7-------------5-7-7----
D----5-7-7---------5-7-5-7-3-5-5-7-5-7-7----
A----------------------5-7-3-5-5-7----------
e-------------------------------------------
LIKE YOU DID BEFORE.....

E-------------------------
B----6-5-6-8--6-5---------
G-----------------5-7-----
D-------------------------
A-------------------------
e-------------------------
TROUBLED AGAIN.....

THATS IT!!!!!ONCE AGAIN,SOLO LATER. WE WISH YOU WELL..........
99c2stephenst@hinchbk.sch.uk

Copyrights
Auteur: ?
Componist: ?
Uitgever: ?
Meer details
Taal: Engels
Beschikbaar op: Gold (Cd 1) (2006), The Definitive Collection (2006), The Last Time (Cd 2) (1997)

Reacties

CommonCrawl [Bot]

Volg Muzikum