Megadeth

Megadeth
Almost Honest (Guitar tab)

Almost Honest
Transcribed by Mike
Standard Tuning

3X
||--------------------------|-----------------------||
||--------------------------|-----------------------||
||o-------------------------|----------------------o||
||o-------2-----------0--2--|----------------------o||
||-----2-----------2-----0--|-2---------------------||
||--0--------2--3-----------|-0---------------------||



|--------------------------|------------------------|
|--------------------------|------------------------|
|--------------------------|------------------------|
|--------2-----------0--2--|---------------------2--|
|-----2-----------2-----0--|-2-------------------0--|
|--0--------2--3-----------|-0----------------------|


Gtr. 1 Verse
|-|--------------------------||---------------------|
| |--------------------------||---------------------|
| |-------7------9\----------||---------------------|
| |-------7------9\----------||---------------------|
| |-2-----5------7\-------2--||---------------------|
| |-0---------------------0--||---------------------|
|
| Gtr. 2 (Clean, flanger)
| |--------------------------||---------------------|
| |--------------------------||---------------------|
| |--------------------------||---------------------|
| |--------------------------||---------------------|
| |--------------------------||---------------------|
|-|------------------------0-||-(0)-----------------|


Gtr. 2 3X Gtr 1
||-----------------|----------------||-------------------|
||-----------------|----------------||-------------------|
||o----------------|---------------o||-------------------|
||o----------------|---------------o||-------------------|
||-----------------|----------------||-------------------|
||--(0)----------0-|-(0)------------||-(0)------------0--|



|---------------------|---------------|---------------------|
|---------------------|---------------|---------------------|
|---------------------|---------------|---------------------|
|----2-----------0--2-|---------------|----2-----------0--2-|
|-2-----------2-----0-|-2-------------|-2-----------2-----0-|
|-------2--3----------|-0-----------0-|-------2--3----------|



|------------------|
|------------------|
|------------------|
|----------------2-|
|-2--------------0-|
|-0----------------|


Fill 1
Gtr 2 Gtr 3
|-|----------------|---------------------|---------------------------|
| |----------------|---------------------|---------------------------|
| |----------------|-----------------4---|----4--x-x-x-x--8----(8)\--|
| |----------------|---------------------|-------x-x-x-x-------------|
| |----------------|-----------------2---|----2--x-x-x-x--6----(6)\--|
| |--------0-------|-(0)-----------------|---------------------------|
|
| Gtr 1
| |----------------|---------------------|---------------------------|
| |----------------|---------------------|---------------------------|
| |----------------|---------------------|---------------------------|
| |--------------2-|---------0---1-------|---------------------------|
| |---2----------0-|-----2---0---1---2~~~|~~~-2--0---1----2--2--0--1-|
|-|---0------------|-----0---------------|---------------------------|
Pm- -| Pm- -|
Chorus
Rhy Fig 1
End Fill 1 Gtr 2 (Clean, tremolo)
|-|-----------------/7----7-----7\-||------------------------|
| |-----------------/7----7-----7\-||----5--------5--------2-|
| |-/11--11--11\-------------------||-------4--------4-------|
| |-/9---9---9-\-------------------||-2--------2--------2----|
| |--------------------------------||------------------------|
| |--------------------------------||------------------------|
|
| Rhy Fig 2
| |--------------------------------||------------------------|
| |--------------------------------||------------------------|
| |--------------------------------||------------------------|
| |--------------------------------||----------------------2-|
| |--2---2---0---1---2-----1-----0-||-2--------------------0-|
|-|--------------------------------||-0----------------------|
Pm- -|


|-|-----------------------|------------------------|
| |----2----------3-------|----5--------5--------2-|
| |-2-----2----------2----|-------4--------4-------|
| |----------2h4--------4-|-2--------2--------2----|
| |-----------------------|------------------------|
| |-----------------------|------------------------|
|
|
| |-----------------------|------------------------|
| |-----------------------|------------------------|
| |-----------------------|------------------------|
| |-(2)-------------------|----------------------2-|
| |-(0)-------------------|-2--------------------0-|
|-|-----------------------|-0----------------------|


End Rhy Fig 1
|-|-----------------------|
| |----2----------2-------|
| |-2-----2---------------|
| |----------2h4-----4----|
| |-----------------------|
| |-----------------------| Guitar 2 plays
| 1st 3 meas. of
| End Rhy Fig 2 Rhy Fig 1
| |-----------------------| Guitar 1 plays
| |-----------------------| 1st 3 meas. of
| |-----------------------| Rhy Fig 2
| |-------2---------------|
| |-------0---------------|
|-|----------2----3--2--0-|



|-|-----------------------||
| |----2----------2-------||
| |-2-----2---------------||
| |----------2h4-----4--2-||
| |-----------------------||
| |-----------------------||
|
| |-----------------------||
| |-----------------------||
| |-----------------------||
| |---2-------------------||
| |---0-------------------||
|-|----------2----3--2--0-||


Verse
Rhy Fig 3- - - - - - - - - - - - - - - - - - - -|
Gtr 1 4X
||-------------------------|----------------------||
||-------------------------|----------------------||
||o------------------------|---------------------o||
||o-------2-----------0--2-|---------------------o||
||-----2-----------2-----0-|-2--------------------||
||-(0)-------2--3----------|-0--0--0--0--0--0--0--||
Pm- - - - - -|


Play Rhy Fig 3, 2X
Fill 2- - - - - - - - - - - - - - - - - - - -|
Gtr 3 2X
||--------------------|-------------------------||
||--------------------|-------------------------||
||o-----9\7---7---7\--|------------------------o||
||o-------------------|------------------------o||
||------7\5---5---5\--|-------------------------||
||--------------------|-------------------------||



|-------------------------|---------------------|-----------------|
|-------------------------|---------------------|-----------------|
|-------------------------|---------------------|-----------------|
|--------2-----------0--2-|-------------------2-|-----0---1-------|
|-----2-----------2-----0-|-2-----------------0-|-2---0---1---2~~~|
|-(0)-------2--3----------|-0--0--0--0--0--0----|-0---------------|
Pm- - - - - -|


Play Fill 1
|-----------------------|-----------------------|
|-----------------------|-----------------------|
|-----------------------|-----------------------|
|-----------------------|-----------------------|
|~~~2--0--1--2--2--0--1-|-2--2--0--1--2---1---0-|
|-----------------------|-----------------------|
Pm- | Pm- | Pm- |


%
Chorus
Play Rhy Fig 1, 4X
Play Rhy Fig 2, 4X
|---------------------------------------------|
|------------------This counts as-------------|
|------------------16 measures----------------|
|---------------------------------------------|
|---------------------------------------------|
|---------------------------------------------|


Gtr 1
|-|------------------------|------------------------|
| |------------------------|------------------------|
| |------------------------|------------------------|
| |------------------------|------------------------|
| |-2----------------------|------------------------|
| |-0----------------------|------------------------|
|
| Rhy Fig 4
| Gtr 4 (12 string)
| |----0--------0--------0-|----0--------0--------0-|
| |------------------------|------------------------|
| |-------9--------9-------|-------8--------8-------|
| |-9--------9--------9----|-9--------9--------9----|
| |------------------------|------------------------|
|-|------------------------|------------------------|



|----0--------0--------0-|----0--------0--------0-|
|------------------------|------------------------|
|-------7--------7-------|-------6--------6-------|
|-7--------7--------7----|-7--------7--------7----|
|------------------------|------------------------|
|------------------------|------------------------|


End Rhy Fig 4
|----0--------0--------0-|----0--------0--------0-|
|------------------------|------------------------|
|-------5--------5-------|-------7--------7-------|
|-5--------5--------5----|-7--------7--------7----|
|------------------------|------------------------|
|------------------------|------------------------|


Gtr 1
|-|-------------------------|------------------------|
| |-------------------------|------------------------|
| |-------------------------|----------------------9-|
| |-------------------------|----------------------9-|
| |-------------------------|----------------------7-|
| |-------------------------|------------------------|
|
| Gtr 4
| |----0--------0-----------|------------------------|
| |----------------------10-|-------9-----9--------9-|
| |-------9--------9--------|-9--------9-----9-------|
| |-9--------9--------9-----|----9--------------9----|
| |-------------------------|------------------------|
|-|-------------------------|------------------------|


Play Rhy Fig 4
|-------------------|------------------|----------------|
|-------------------|------------------|----------------|
|-9-----9----x------|------------------|----------------|
|-9-----9----x----8-|---8--8-------x-x-|-7-----7----x-7-|
|-7-----7----x----6-|---6--6-------x-x-|-5-----5----x-4-|
|-------------------|------------------|----------------|


Play Fill 3
|-|--------------|---------------|-----------------||
| |--------------|---------------|-----------------||
| |--------------|-5----5---x----|-----------------||
| |-7--7-----x-x-|-5----5---x--7-|--7--7-----------||
| |-4--4-----x-x-|-3----3---x--5-|--5--5-----------||
| |--------------|---------------|---------------0-||
|
| Gtr 3
| |--------------|----------------|----------------||
| |--------------|----------------|----------------||
| |-------11b--r-|-9--------------|----------------||
| |--------------|----------------|----------------||
| |--------------|----------------|----------------||
|-|--------------|----------------|----------------||



|- - - - - - - - - - - - - - |
| Fill 3 |
| Gtr 4 |
| |----0--------0---------| |
| |-----------------------| |
| |-------7---------------| |
| |-7--------7------------| |
| |-----------------------| |
| |-----------------------| |
| |
|- - - - - - - - - - - - - - |


Guitar solo
Play Rhy Fig 3, 7X
Gtr 5 processed guitar
|-------------------------|-9------------------------|
|----8-8-8--8-8--8-8--8-8-|-----8-8-8--8-8--8-8--8-8-|
|-------------------------|--------------------------|
|-------------------------|--------------------------|
|-------------------------|--------------------------|
|-------------------------|--------------------------|


Gtr 5
|-|-9-----------------------|-9------------------------|
| |----8-8-8--8-8--8-8--8-8-|-----8-8-8----------------|
| |-------------------------|--------------------------|
| |-------------------------|--------------------------|
| |-------------------------|--------------------------|
| |-------------------------|--------------------------|
|
| Gtr 3
| |-------------------------|--------------------------|
| |-------------------------|------------8--7b-r-------|
| |-------------------------|-----7------------------9-|
| |-------------------------|--/9-----9----------------|
| |-------------------------|--------------------------|
|-|-------------------------|--------------------------|


Gtr 3
|-------------------------------|-------------------------|
|--~~~~---~~~~~---~~~~~---~~~~~-|----10---(10)b---8-10----|
|-(9)---------------------------|-----------------------9-|
|-------------------------------|-------------------------|
|-------------------------------|-------------------------|
|-------------------------------|-------------------------|



|----------------------------------|
|--~~~~---~~~~---~~~~---~~~~--9----|
|-(9)------------------------------|
|-------------------------------11-|
|----------------------------------|
|----------------------------------|
Pm- |


|---------------12-----------12--------12-------|
|-/12-15-12-15b----15-12-15b----12-14b----15-12-|
|-----------------------------------------------|
|-----------------------------------------------|
|-----------------------------------------------|
|-----------------------------------------------|



|-----12----------------~~~~~~-|
|--------15-12-15b--15---------|
|-14b--------------------------|
|------------------------------|
|------------------------------|
|------------------------------|


Rake
|----12---------------------------12--------------------|
|--x----16-12-----------15p12--------12h15-12-----------|
|-x-----------14b-r-p12-------14b-------------14b-r-p12-|
|-------------------------------------------------------|
|-------------------------------------------------------|
|-------------------------------------------------------|



|------------------------12------|------------------------18-|
|--------15----------------------|---------------------------|
|-14b--------14b---14b-------14b-|---r-p12-14-12~~~~~~~~--15-|
|--------------------------------|---------------------------|
|--------------------------------|---------------------------|
|--------------------------------|---------------------------|
Hold Bend-|


~~~~~~
|-18b---------15b--|----15b----15p12------15b------|
|------------------|-----------------12------------|
|------------------|-------------------------------|
|------------------|-------------------------------|
|------------------|-------------------------------|
|------------------|-------------------------------|


~~~~~~ ~~~~~~
|-|-15------15p12------15b--15------|
| |---------------12----------------|
| |---------------------------------|
| |---------------------------------|
| |---------------------------------|
| |---------------------------------|
|
|
| |---------------------------------|
| |---------------------------------|
| |---------------------------------|
| |--------2-----------0---2--------|
| |-----2-----------2------0--------|
|-|-(0)-------2--3------------------|



|-|-15p12-------12--------------------------------|
| |-------12h15----12-15p12-15p12-------12--------|
| |-------------------------------12h14----12-14b-|
| |-----------------------------------------------|
| |-----------------------------------------------|
| |-----------------------------------------------|
|
|
| |-----------------------------------------------|
| |-----------------------------------------------|
| |-----------------------------------------------|
| |--------------------------------------------~~~|
| |-------2------------------------------------2--|
|-|-------0-----0-------0----0----0-----0---------|
Pm- - - - - - - - - - - - |


~~~~~~~~
|-|------11-----14--14---------|-16----17------18----19-------|
| |----------x-----------------|------------------16----------|
| |-(b)---------14--14--14/16--|----14------18----------------|
| |----------------------------|------------------------------|
| |----------------------------|------------------------------|
| |----------------------------|------------------------------|
| hold bend-|
|
| |----------------------------|------------------------------|
| |----------------------------|------------------------------|
| |----------------------------|------------------------------|
| |--~~~~----------------------|------------------------------|
| |-(2)--2-0-1--2---2---0--1---|-2--0----0----1---2--1------0-|
|-|----------------------------|------------------------------|
Pm-| Pm- | Pm- - |


Gtr 3
~~~~~~~~~~~~~~~~~~~~~~~~~~~~~~
|-(19)-------------------------(19)\-||
|------------------------------------|| DS al Coda %
|------------------------------------||
|------------------------------------||
|------------------------------------||
|------------------------------------||



CODA
Play last 2 bars of Rhy Fig 1 and 2
Gtr 3
|---------------------------------------|
|---------------------------------------|
|---------------------------------------|
|---------------------------------------|
|--------------------------------12--12-|
|---------------------------------------|



|-------------------------------------------------|
|-------------------------------------15p12-------|
|----------12-14p12-------------12-12-------14p12-|
|-------12----------14p12-12h14-------------------|
|-12h14-------------------------------------------|
|-------------------------------------------------|


Outro
Gtr 3 (tremelo)
|-|------------------------------|------------------------------|
| |-------12--12----------12-----|-12--------12------12--12--12-|
| |-14b---------------14b-----14-|-----14--------12--12--12-----|
| |------------------------------|------------------------------|
| |------------------------------|------------------------------|
| |------------------------------|------------------------------|
| Hold Bend- - | Hold Bend-|
| Gtr 1
| |------------------------------|------------------------------|
| |------------------------------|------------------------------|
| |---------7---9----------------|------------------------------|
| |---------7---9--------------2-|---------------------------0--|
| |-2-------5---7--------------0-|------3---2--0------2---3-----|
|-|-0---0--------------0---0-----|------------------------------|
Pm Pm- -|


Rhy Fig 5 - - - - - - - - - - - - - - - - - - - - - - - |
|-|-------------------------------|-------------------------|
| |-----12-12-------12------12----|-12-------12----12-12-12-|
| |-14b---------14b-----14b----14-|----14----12----12-12-12-|
| |-------------------------------|-------------------------|
| |-------------------------------|-------------------------|
| |-------------------------------|-------------------------|
| Hold Bend-| HB - | Hold Bend- - - - -|
|
| |-------------------------------|-------------------------|
| |-------------------------------|-------------------------|
| |---------7----9----------------|-------------------------|
| |-2-------7----9--------------2-|-----------------------0-|
| |---------5----7--------------0-|----3--2--0------2--3----|
|-|------0--------------0---0-----|-------------------------|
Pm Pm- -|


Play Riff A till end
|-------------------------------|-------------------------|
|-------------------------------|-------------------------|
|---------7----9----------------|-------------------------|
|-2-------7----9--------------2-|-----------------------0-|
|---------5----7--------------0-|----3--2--0------2--3----|
|------0--------------0---0-----|-------------------------|
Pm Pm- -|

|------------------------------|----------------------|
|------------------------------|----------------------|
|--------7----9----------------|----------------------|
|-2------7----9--------------2-|----------------------|
|--------5----7--------------0-|--------4-----5--4----|
|-----0--------------0---0-----|--0--0--2-----3--2--0-|
Pm Pm- -| Pm- | Pm


2X
||--------------------------------|---------------------------||
||--------------------------------|---------------------------||
||o---------7----9----------------|--------------------------o||
||o--2------7----9--------------2-|-----------------------0--o||
||----------5----7--------------0-|----3--2--0------2--3------||
||-------0--------------0---0-----|---------------------------||
Pm Pm- -|

OptimusPrime

Toegevoegd door OptimusPrime op zo 30 okt, 2005 9:31 am

Auteur: Marty Friedman, Dave Mustaine
Componist: ?
Uitgever: Capitol Records Inc.

Reacties

CommonCrawl [Bot]

Volg Muzikum