Free

Free
All Right Now Ver 3 (Guitar tab)

Author/Artist: Free
Title: All Right Now
Album: Fire and Water
Transcribed by: Martin Hutchinson
Email: mdh130@hotmail.com

This is DEFINITELY the correct way to play this classic,
as I got it from my guitar book, and it sounds good to me!

The main riff to this song is best played with two guitarists
to give that slightly 'out of sync' sound. It is best played with
a bridge pickup (preferably humbucking), and a mild
overdrive to give some 'bite'.

I have only tabbed the first guitar, but the second is
pretty similar to the first anyway so what the hell!


Main Riff:
~~~~~~~~~~

---------------|------------|--------------------------|----|-----------------
-2-----------3-|--2---------|-3-3--0--3-----3-3-3-3----|-2--|-----------------
-2-----------2-|--2---------|-0-0--0--0-----2-2-2-2----|-2--|-----------------
-2-----------4-|--2--------2|-4-4--0--4-----4-4-4-4----|-2--|-----------------
-0--------0----|--0--------0|------------0--0-----0--0-|-0--|-----------------
---------------|------------|--------------------------|----|-----------------
This section changes slightly, but only by
a note or two and you can't tell much. If it really bothers
you that much E-mail me and I (may) reply with the changes.

Chorus:
~~~~~~~

------------------|----|----------------|-|-----------------|--|-----------|
------------------|----|----------------|-|-----------------|--|-----------|
--9---9---9-----7-|----|--7---7-------9-|-|-9---9---9-----7-|--|--7--7---2-|
--7---7---7-----5-|----|--4---4-------7-|-|-7---7---7-----5-|--|--4--4---2-|
--0---0---0-9-7-0-|----|--5---5-------0-|-|-0---0---0-9-7-0-|--|--5--5---0-|
------------------|----|----------------|-|-----------------|--|-----------|
All right now.. ..all right now


Solo
~~~~

--------|----------|----------|---------------|-|--------0-----------|--------
--------|----------|----------|---------------|-|--3/5-----/7---7/5--|--------
-0h2vvv-|--/4--2/4-|-4/2--vvv-|--2/4---4/2vvv-|-|--------------------|--------
--------|----------|----------|---------------|-|--------------------|--------
--------|----------|----------|---------------|-|--------------------|--------
--------|----------|----------|---------------|-|--------------------|--------


------0------------|-|------5--------------|-|-------|--|---------------------
-5------/7----7/5--|-|---------------------|-|-8/10--|--|---------------------
-------------------|-|-2h4-----4b5r4--2vvv-|-|-------|--|---------------------
-------------------|-|---------------------|-|-------|--|---------------------
-------------------|-|---------------------|-|-------|--|---------------------
-------------------|-|---------------------|-|-------|--|---------------------


------------------------------------------------------------------------------
-10----10----10----10----10--12b14vvv-----------------------------------------
---9h11--9h11--9h11--9h11-----------------------------------------------------
------------------------------------------------------------------------------
------------------------------------------------------------------------------
------------------------------------------------------------------------------
x2

---------------------------|-|----0--------------|-|---0-------------------||-
-13b14--r12--10------10vvv-|-|-12b14r12-10----10-|-|-12-b14-r12-10----10vv-||-
------------------11-------|-|--------------11---|-|----------------11-----||-
---------------------------|-|-------------------|-|-----------------------||-
---------------------------|-|-------------------|-|-----------------------||-
---------------------------|-|-------------------|-|-----------------------||-
rp12

------17-----17-----17-----17-----17-|-----------17---20b22|-r20p17-20--------
-17h20--17h20--17h20--17h20--17h20---|-20b22vvv-----17-----|------------------
-------------------------------------|---------------------|------------------
-------------------------------------|---------------------|------------------
-------------------------------------|---------------------|------------------
-------------------------------------|---------------------|------------------


---------17---------|-|-17-----17-----17-----17-----17-----17-|---------------
-20b22vv---20b22vv--|-|---17h20--17h20--17h20--17h20--17h20---|---------------
--------------------|-|---------------------------------------|---------------
--------------------|-|---------------------------------------|---------------
--------------------|-|---------------------------------------|---------------
--------------------|-|---------------------------------------|---------------
Wide

------------17----|-20b22-r20-22----r20p17-|-20-----------17-|----------------
-20b22--22-----17-|------------------------|----20b22vvv-----|----------------
------------------|------------------------|-----------------|----------------
------------------|------------------------|-----------------|----------------
------------------|------------------------|-----------------|----------------
------------------|------------------------|-----------------|----------------
rp prebend

------------------------|---|--------|----------------------------------------
-20--22-r-20--19-17vvvvv|vvv|vv------|----------------------------------------
------------------------|---|--------|----------------------------------------
------------------------|---|--------|----------------------------------------
------------------------|---|--------|----------------------------------------
------------------------|---|--------|----------------------------------------

OptimusPrime

Toegevoegd door OptimusPrime op zo 01 dec, 2002 9:51 am

Auteur: ?
Componist: ?
Uitgever: ?
Taal: Engels

Reacties

CommonCrawl [Bot]

Volg Muzikum