Free

Free
Fire And Water (Guitar tab)

Fire And Water
-Free
(Fraser/Rodgers)
Transcribed by-Rympu


Album-Fire And Water
Tuning-Standard

70's anybody? This tab's by ear.
Key:
h-hammer on
p-pull off
bf-full bend
hf-half bend
.-Kill note
tr-trill
~-vibrato
\or/-slide
r-release

eg- 14bfr means bend string at 14th fret up two steps and release.

intro:

e--------3----3--|-------3---------|
B----5---5----3--|--5----5----3----|
G----------------|------------2----|
D----------------|------------0----|
A----------------|-----------------|
E----------------|-----------------|

e-------------------|----------------|
B-----5-------------|----------------|
G----------5-----3--|----------------|
D----------5-----3--|------7---------|
A-------------------|------5---------|
E-------------------|----------------|

Verse Riff

e---------------|--------------|---------------|--------------|
B---------------|--------------|---------------|--------------|
G---------------|--------------|---------------|--------------|
D---5--7-7-7-7--|--5--7-7-7-7--|------5-5-5-5--|--5--7-7-7-7--|
A---5--7-7-7-7--|--5--7-7-7-7--|---7--5-5-5-5--|--5--7-7-7-7--|
E---------------|--------------|---7-----------|--------------|


e---------------|--------------|---------------|-------------|
B---------------|--------------|---------------|-------------|
G---------------|--------------|---------------|-------------|
D---5--7-7-7-7--|--5--7-7-7-7--|------5-5-5-5--|--7.--5.-----|
A---5--7-7-7-7--|--5--7-7-7-7--|---7--5-5-5-5--|--7.--5.--7.-|
E---------------|--------------|---7-----------|----------7.-|

Chorus:

e----------------------|-------------------|
B----------------------|-------------------|
G--7-7--9-9--5-5--7-7--|-------------------|
D--7-7--9-9--5-5--7-7--|--7----9----5----7-|
A----------------------|--5----7----3----5-|
E----------------------|-------------------|

e-----------------|
B-----------------|
G-----------------|
D--7---9---5---7--|
A--7---9---5---7--|
E-----------------|


After the first two verses there is a breakdown.Then comes some
kinda wierd feedback swell.
For the solo two guitars come in.Before that a couple
of D's are hit like

B---7-|
G----| G---7-|
D--7-| and D---7-|
A--5-| A---5-|
E----| E-----|


Now I'm Labelling the guitars as G1 and G2.Remember to hit the bends
with the right feel.

G1
e----------------|-----------------|-----------------|------------|
B----------------|--15-----15------|-----------------|------------|
G--14bf-14bf-14bf|-----14bf---14bf-|--12---14bf------|------------|
D----------------|-----------------|------------14~~-|------------|
A----------------|-----------------|-----------------|------------|
E----------------|-----------------|-----------------|------------|
| | | | |
|G2 | | | |
e----------------|-----------------|-----------------|------------|
B----------------|-----------------|-----------------|--17bf------|
G----------------|-----------------|-----------------|--hold bend-|
D----------------|-----------------|-----------------|------------|
A----------------|-----------------|-----------------|------------|
E----------------|-----------------|-----------------|------------|

G1
e---------------------|---------------------------|
B--15--17bfr--15--12~~|---------17-15--12~--------|
G---------------------|---------------------------|
D---------------------|---------------------------|
A---------------------|---------------------------|
E---------------------|---------------------------|
G2 |
e---------------------|---------------------------|
B---------------------|--17bf---------------15----|
G---------------------|------------------------14-|
D---------------------|---------------------------|
A---------------------|---------------------------|
E---------------------|---------------------------|

G1
e----------|---------------------------|-------------------|
B----------|---------------------------|-------------------|
G----14----|----14bf----12-14bf--------|-------------------|
D----12----|---------------------14----|-------------------|
A----------|---------------------------|-------------------|
E----------|---------------------------|-------------------|
G2 | |
e----------|---------------------------|-------------------|
B----------|---------------------------|-------------------|
G----------|---14bf-r--(14bfr)-(14bfr)-|---14/slide to nut-|
D----7-----|---------------------------|-------------------|
A----5-----|---------------------------|-------------------|
E----------|---------------------------|-------------------|
G3(for the piano trill) | |
e----------|---------------------------|-------------------|
B----------|---------------------------|-------------------|
G----7tr8--|---------------------------|-------------------|
D----------|---------------------------|-------------------|
A----------|---------------------------|-------------------|
E----------|---------------------------|-------------------|

G1
e----------------17bf-19--17bf-|--17bf-----17bf17bf17bf-15-17bf---|
B------15----------------------|-------19-------------------------|
G--14hf----14bf----------------|----------------------------------|
D------------------------------|----------------------------------|
A------------------------------|----------------------------------|
E------------------------------|----------------------------------|
G2 | |
e------------------------------|--------17bf-------17bf-----------|
B------------------------------|---hold bends---------------------|
G------------------------------|----------------------------------|
D------------------------------|----------------------------------|
A------------------------------|----------------------------------|
E------------------------------|----------------------------------|

G2 goes out


G1
e----15/14--------|---------------------------------------------------|
B------------12~--|--------------17----17-----------------------------|
G-----------------|-12--15-12--17bf--17bf-17p15p14--17-15-/12~\-.-----|
D-----------------|------------------------------------------(remember|
A-----------------|-------------------------------------------to kill-|
E-----------------|---------------------------------------------note)-|

G1
e----------12------12-----12--12----12---12---12--/-|
B------14bf---14bf(hold)14-r--14bf--14---14-r-14bf/-|
G---------------------------------hold-bend---------|
D---------------------------------------------------|
A---------------------------------------------------|
E---------------------------------------------------|

Before the drum solo hit a few (listen to CD)

e-------------|
B--7-------7--|
G--7-------7--|
D--7-------7--|
A-------------|
E-------------|

Song structure
intro
Verse 1
Chorus
Verse 2
Chorus
Break and Solo
Verse 3
Chorus
Drum solo

I'm at baijantab@mantramail.com

OptimusPrime

Toegevoegd door OptimusPrime op zo 01 dec, 2002 9:51 am

Auteur: ?
Componist: ?
Uitgever: ?
Taal: Engels

Reacties

CommonCrawl [Bot]

Volg Muzikum