Free

Free
All Right Now Ver 2 (Guitar tab)

Verse: All Right Now

-5-------------5---------------------5--------
-5-----5---3---5-------2-----2-2-----5--------
-2-----2---2---2-------2-----0-0-----2--------
-2-----2---3---2-------2-----4-4-----2--------
-0-----0---0---0-------0-----0-0-----0--------
----------------------------------------------


I'm sorry, but you gotta get those open strings ringing.
Oh yeah, you also gotta get a sunburst Les Paul and a 100 watt
Plexi super lead!!

Chorus:


-5-5-5----------------------------------------------
-5-5-5-----------------------------------2----------
-2-2-2---4---2------7-----7--7--7--7-----2----------
-2-2-2--------------5-----4--4--4--4-----2----------
-0-0-0-----------------------------------0----------
----------------------------------------------------


The solo is in the Eric Clapton vein all around the
12th, 14th, and 15th fret. Paul Kossoff truly played
with a minimalist style, but sure as hell had
tons of feel.

...sreybk@yahoo.com

OptimusPrime

Toegevoegd door OptimusPrime op zo 01 dec, 2002 9:51 am

Auteur: ?
Componist: ?
Uitgever: ?
Taal: Engels

Reacties

CommonCrawl [Bot]

Volg Muzikum