Embrace

Embrace
My Weakness Is None Of Your Business (Bass tab)

Song: "My Weakness Is None of Your Business"
by EMBRACE
from the album: "The Good Will Out"
written by: Danny McNamara & Richard McNamara
tabbed by: Guido Comparato

Second Verse ("You could be the first...")
G|---------------------------------------------------------|
D|---------------------------------------------------------|
A|-1---1--1-1--1-------------------------------------------|
E|---------------4---4--4-4--4-3---3--3-3--3-1---1--1-1--1-|

Pre-Chorus ("That's why...")
G|----------------------------------------------------------|
D|----------------------------------------------------------|
A|-6---6--6-6--6-8---8--8-8--8-6---6--6-6--6-8---8--8-8--8--|
E|----------------------------------------------------------|

G|------------------------------------|
D|------------------------------------|
A|-10---10--10-10--10-10---10--10-10--|
E|------------------------------------|

Third Verse ("Don't want to make a row...")
G|---------------------------------------------------------|
D|---------------------------------------------------------|
A|-1-------------------------------------------------------|
E|-----------------------------3---3--3-3--3-1---1--1-1--1-|

G|---------------------------------------------------------|
D|---------------------------------------------------------|
A|-1---1--1-1--1-------------------------------------------|
E|---------------4---4--4-4--4-3---3--3-3--3-1---1--1-1--1-|

Chorus ("Because my weakness...")
G|------------------------------------------------------------|
D|------------------------------------------------------------|
A|-6---6--6-6--6-10---10--10-10--10-8---8--8-8--8-5--3--1--0--|
E|------------------------------------------------------------|

G|--------------------------------------------------------------|
D|----------------------------------------------8---------------|
A|-6---6--6-6--6-10---10--10-10--10-8---8--8-8----8---8--8-8--8-|
E|--------------------------------------------------------------| (x2)

Outro
G|---------------------------------------------------------|
D|---------------------------------------------------------|
A|-1---1--1-1--1-------------------------------------------|
E|---------------4---4--4-4--4-3---3--3-3--3-1---1--1-1--1-| (x2)

G|------------------|
D|------------------|
A|-1----(let-ring)--|
E|------------------|

Have fun!
Corrections, comments or anything else to comparato@fcmail.com

Bye bye

OptimusPrime

Toegevoegd door OptimusPrime op zo 01 dec, 2002 9:43 am

Auteur: ?
Componist: ?
Uitgever: ?
Taal: Engels

Reacties

CommonCrawl [Bot]

Volg Muzikum