Talking Heads

Talking Heads
Psycho Killer Ver 2 (Bass tab)

"Psycho killer" by Talking Heads
-----------------------------------

Intro & Verse:

G ---------------------------------
D ---------------------------------
A ---------------------------------
E -5---5---5---5---5---5---5-0-3---

Chorus:

G --------------------------------- \
D -3-------3-------5-------5------- \
A -----5-3-----5-3-----7-5-----7-5- \
E --------------------------------- \
|
G --------------------------------- |
D --------------------------------- |
A --------------------------------- /
E -5---5-3-5---5-3-5---5-3-5---5--- |
> Play all of this twice
G --------------------------------- | then play the first line
D -3-------3-------5-------5------- \ of chorus one extra time
A -----5-3-----5-3-----7-5-----7-5- | and go back to the verse.
E --------------------------------- | (after second chorus to bridge)
|
G --------------------------------- /
D --------------------------------- /
A -3---3-2-3---3-2-3---3-2-3---3--- /
E --------------------------------- /

Bridge:

G --------------------------------- \
D -4---2---0----------------------- |
A -------------4---2---0---2---4--- |
E --------------------------------- /
> Twice, then next part of the bridge
G --------------------------------- \
D -5---4---2---0---5---4---2---0--- |
A --------------------------------- |
E --------------------------------- /

G ---------------------------------
D -----4-2-0-----4-2-0-------------
A -----------0---------0-----------
E ---------------------------------

G -----4-2-0-----4-2-0-------------
D -----------0---------0-----------
A ---------------------------------
E ---------------------------------

After that a short verse, then chorus, and finally the ending,
which is something like this:

G ---------------------------------
D -----7-------7-------7-------7--- etc.
A -7-------7-------7-------7------- etc.
E ---5---5---5---5---5---5---5---5-

THE END.

Tabbed by Robert

OptimusPrime

Toegevoegd door OptimusPrime op do 14 aug, 2003 7:18 pm

Auteur: ?
Componist: ?
Uitgever: ?
Taal: Engels

Reacties

CommonCrawl [Bot]

Volg Muzikum