The Fun Lovin' Criminals

The Fun Lovin' Criminals
Crime And Punishment (Bass tab)

FUN LOVIN' CRIMINALS

Come find yourself - album

Tabbed by: Fjon (fjonklein@excite.com)


Nearly of the bass lines on this album are really short riffs, so I
decided I might as well tab the whole album. Most of the stuff is very
easy and fun to play. I have no idea if its played on a bass, or on a
keyboard, but I know that when they play live, the keyboard player
plays the bass on a pedal operated keyboard. A lot of the songs here
are played on a five dtring, so I'll writreout for four string as well-
it won't sound the same, though!

Crime and Punishment

Five string
Riff a: Riff b
G|-------------||------------|
D|-------------||------------|
A|-9-8-7-------||---5------1-|
E|-------7--10-||-3----------|
B|-------------||------(5)-3-|

Four string-tune your E string down to D
Riff a: Riff b:
G|-------------||--------------|
D|-4-3-2-------||--------------|
A|--------2--5-||---5--------1-|
D|-------------||-5----(2)-0---|

OptimusPrime

Toegevoegd door OptimusPrime op zo 01 dec, 2002 9:48 am

Auteur: ?
Componist: ?
Uitgever: ?
Taal: Engels

Reacties

CommonCrawl [Bot]

Volg Muzikum