The Fun Lovin' Criminals

The Fun Lovin' Criminals
Korean Bodega (Guitar tab)

Korean Bodega - Fun Lovin' Criminals

Intro & Chorus

e---------------------------
B---------------------------
G--1--1--1--1--1--1---2--1--
D--2--2--2--2--2--2---2--2-- X3
A--2--2--2--2--2--2---2--2--
E---------------------------

e---------------------------
B---------------------------
G--9--9--9--9--9--9---7--9--
D--9--9--9--9--9--9---7--9--
A--7--7--7--7--7--7---5--7--
E---------------------------

Verse

OptimusPrime

Toegevoegd door OptimusPrime op zo 01 dec, 2002 9:48 am

Auteur: ?
Componist: ?
Uitgever: ?

Reacties

CommonCrawl [Bot]

Volg Muzikum