Flogging Molly

Flogging Molly
Devils Dance Floor (Guitar tab)

#

Band: Flogging Molly

Song: Devil's Dance Floor

Album: Swagger



This is, to my knowledge, the only tab of this on the internet. WOO!

gnuti seauton


/ a slide
~ tremolo
h hammer on
p pull off
' bend


Intro (pan flute part - fast)

e ---17h19-17h19----15~ -12h13h14--------------------
b 17-------------17--------------14-14-16-14-13------
g ---------------------------------------------12~~~
d ---------------------------------------------------
a ---------------------------------------------------
E ---------------------------------------------------

e ---17h19-17h19----15~ -12h13h14--------------------
b 17-------------17--------------14-14-16-14-13-13~~~
g ---------------------------------------------------
d ---------------------------------------------------
a ---------------------------------------------------
E ---------------------------------------------------


Chorus

Am C G

Swing a little more, little more o'er the *dery-o?*

Am C Em

Swing a little more, a little more for me

Am C G

Swing a little more, little more o'er the *dery-o?*

Am C G Am

Swing a little more, on the Devil's Dance Floor




Accordion Part (played over chorus)

e 12-------------------------------------------------
b ---10-10-12-10--10-12-13~ 15h13h12h10--------------
g --------------------------------------12~~ --------
d ---------------------------------------------------
a ---------------------------------------------------
E ---------------------------------------------------

e 12-------------------------------------------------
b ---10-10-12-10--10-12-13-10-12-10~~~ --------------
g ---------------------------------------------------
d ---------------------------------------------------
a ---------------------------------------------------
E ---------------------------------------------------


There is a part in the song where everything is moved up
two frets. For example, the chorus becomes "Bm - D - Am"
and the accordion starts at the 14th fret.

OptimusPrime

Toegevoegd door OptimusPrime op zo 01 dec, 2002 9:54 am

Auteur: ?
Componist: ?
Uitgever: ?
Taal: Engels

Reacties

CommonCrawl [Bot]

Volg Muzikum