The Black Crowes

The Black Crowes
Hardman Ver 2 (Guitar tab)

E-|----------------------------------|----------------------------------------|
B-|----------------------------------|----------------------------------------|
G-|------------------7b9-9b7-5-7-7-5-|-repeat-this-3-times-then-do------------|
D-|--5h7-7-5-5h7-5h7-0---0-0-0-0-0-0-|----------------------------------------|
A-|--0---0-0-0---0-------------------|----------------------------------------|
E-|----------------------------------|----------------------------------------|


E-|-------------------------|-------------------------------------------------|
B-|-------------------------|-------------------------------------------------|
G-|-9-9-9-9-11b12p9-7-9-7-5-|-now-go-back-to-the-first-riff-------------------|
D-|-------------------------|-------------------------------------------------|
A-|-------------------------|-------------------------------------------------|
E-|-------------------------|-------------------------------------------------|


E-|---------------------------------|-----------------------------------------|
B-|---------------------------------|-----------------------------------------|
G-|-----------------7-7-7-7-7-7-7-7-|-repeat-this-3-times---------------------|
D-|-7-7-7-7-7-7-7-7-7-7-7-7-7-7-7-7-|-----------------------------------------|
A-|-7-7-7-7-7-7-7-7-5-5-5-5-5-5-5-5-|-----------------------------------------|
E-|-5-5-5-5-5-5-5-5-----------------|-----------------------------------------|


E-|---------------------------------------------------------------------------|
B-|---------------------------------------------------------------------------|
G-|-7-7-7-7-7-7-7-7-----------------------------------------------------------|
D-|-7-7-7-7-7-7-7-7-9-9-9-9-9-9-9-9-7-----------------------------------------|
A-|-5-5-5-5-5-5-5-5-9-9-9-9-9-9-9-9-7-(let-ring)------------------------------|
E-|-----------------7-7-7-7-7-7-7-7-5-----------------------------------------|


E-|---------------------------------------------------------------------------|
B-|---------------------------------------------------------------------------|
G-|---------------------------------------------------------------------------|
D-|---------------------------------------------------------------------------|
A-|---------------------------------------------------------------------------|
E-|---------------------------------------------------------------------------|


E-|---------------------------------------------------------------------------|
B-|---------------------------------------------------------------------------|
G-|---------------------------------------------------------------------------|

OptimusPrime

Toegevoegd door OptimusPrime op do 14 aug, 2003 4:13 pm

Auteur: ?
Componist: ?
Uitgever: ?
Taal: Engels

Reacties

CommonCrawl [Bot]

Volg Muzikum