The Black Crowes

The Black Crowes
Hard To Handle Ver 2 (Guitar tab)

"Hard to Handle"
by "The Black Crowes"
tabbed by Eric S. vanstimpy@aol.com



E----------------------------|-------------------------
B----------------------------|-------------------------
G----------------------------|-------------------------
D-----0-2--4-----2-0--2-0----|-----0-2--4----2-0--2-0--
A--2----------------------2--|--2----------------------
E----------------------------|-------------------------

E--------------------------|-------------------------
B--------------------------|-------------------------
G--4---4----4-4--4-4-4-4-4-|-4-4--6-4---6-4--4-4-4-4-
D--4---4----4-4--4-4-4-4-4-|-4-4--6-4---6-4--4-4-4-4-
A--2---2----2-2--2-2-2-2-2-|-2-2------6--------------
E--------------------------|-------------------------
Play With the rythm here any way you want, it's pretty
simple.

E--------------------------|-------------------------
B--------------------------|-------------------------
G--4---4----4-4--4-4-4-4-4-|-4-4--6-4---6-4--4-4-4-4-
D--4---4----4-4--4-4-4-4-4-|-4-4--6-4---6-4--4-4-4-4-
A--2---2----2-2--2-2-2-2-2-|-2-2------6--------------
E--------------------------|-------------------------


E--------------------------|--------------------------
B--------------------------|--------------------------
G--------------------------|------------------------4-
D--4---4--4--4-4--4-4-4-4--|-4---4--4--4-4--4-4-4-4-4-
A--4---4--4--4-4--4-4-4-4--|-4---4--4--4-4--4-4-4-4-2-
E--2---2--2--2-2--2-2-2-2--|-2---2--2--2-2--2-2-2-2---

E--------------------------|--------------------------
B--------------------------|--------------------------
G--7---9--------9----------|-------9------------9-----
D--7---9----7---9--9-------|---7---9--9-----7---9--9--
A--5---7----7---7--9-------|---7---7--9-----7---7--9--
E-----------5------7-------|---5------7-----5------7--

OptimusPrime

Toegevoegd door OptimusPrime op zo 01 dec, 2002 8:41 am

Auteur: ?
Componist: ?
Uitgever: ?
Taal: Engels

Reacties

CommonCrawl [Bot]

Volg Muzikum