The Black Crowes

The Black Crowes
She Talks To Angels Ver 2 (Guitar tab)

"She Talks To Angels"
The Black Crowes
Tabbed by Eric S. Vanstimpy@aol.com

e |-----0------0------0----------0-| R
B |-4h5---4\2-0------0-----------0-| E
G#|--------------0h1----1-1p0----0-| P
E |---------------------------0--0-| E
B |--------------------------------| A
E |--------------------------------| T


e |-000-0-0-0-0-0-0----12-15-000-0-0-0-0-0-0-|
B |-000-0-0-0-0-0-0----12-15-000-0-0-0-0-0-0-|
G#|-000-0-0-1-x-1-0----12-15-000-0-0-1-x-1-0-|
E |-000-0-0-2-x-2-0----12-15-000-0-0-2-x-2-0-|
B |-000-0-0-0-0-0-0----12-15-000-0-0-0-0-0-0-|
E |-000-0-0-0-0-0-0----12-15-000-0-0-0-0-0-0-|
v^v v ^ v ^ v ^ v v

e |----------------------------------0-0-0-0-0-0-|
B |---------------0h2----------0-----0-0-0-0-0-0-|
G#|------0--0h3-------0--0h3---------0-0-1-x-1-0-|*this part can be tricky
E |--2/4--------0------------0---2-0-0-0-2-x-2-0-|
B |----------------------------------0-0-0-0-0-0-|
E |----------------------------------0-0-0-0-0-0-|
v ^ v ^ v ^

e |-0-0-0-0-0-0-0-0-0-0-00-0-0-0-0-|
B |--5-4------------0-0-00-0-0-0-0-|
G#|------5-3-1-0----0-0-00-1-x-1-0-|
E |--------------0--0-0-00-2-x-2-0-| you can play around w/
B |-------------------0-00-0-0-0-0-|the strumin you dont have
E |-------------------0-00-0-0-0-0-| to do it exactly like that
v v v^ v ^ v ^

Verse
She never mentions the word addiction...
e |-----------------------------000---0-0-00-0-0-0-0-------|
B |-----------------------------000---0-0-00-0-0-0-0-------|
G#|-----------------------------000---0-0-00-1-x-1-0-------|Repeat 4x through out the verse
E |-----------------------------000---0-0-00-2-x-2-0-------|
B |-----------------------------000---0-0-00-0-0-0-0-------|
E |-----------------------------000---0-0-00-0-0-0-0-------|

| Pre chorus | Chorus |
e |-00000-0-00000-|-7-77-77-7--555-55555-0-00-0-0-0-0-|
B |-55555-5-55555-|-7-77-77-7--555-55555-0-00-0-0-0-0-| **As with the rest of the tab, listen to the song to get the exact cord changes & struming techniques
G#|-00000-0-00000-|-7-77-77-7--555-55555-0-00-1-x-1-0-|
E |-00000-0-00000-|-7-7--77-7--555-55555-0-00-2-x-2-0-|
B |---------------|-7-7--77-7--555-55555-0-00-0-0-0-0-|
E |---------------|-7-7--77-7--555-55555-0-00-0-0-0-0-|
v^v^v v v^v^v v v^ v^ v ^v^ v^v^v v v^ v ^ v ^

Part D
e |--12--15--|
B |--12--15--|
G#|--12--15--|
E |--12--15--|
B |--12--15--|
E |--12--15--|

Bridge
A E Esus
|-5-|-0-|-0-| this is easy here are the chords, you can
|-5-|-0-|-0-| figure it out
|-5-|-0-|-1-|
|-5-|-0-|-0-|
|-5-|-0-|-0-|

OptimusPrime

Toegevoegd door OptimusPrime op zo 01 dec, 2002 8:41 am

Auteur: ?
Componist: ?
Uitgever: ?
Taal: Engels

Reacties

CommonCrawl [Bot]

Volg Muzikum