The Black Crowes

The Black Crowes
Remedy Ver 2 (Guitar tab)

Black Crowes
Remedy
First, the song is in open G (DGDGBD) and you use a capo on the 3rd fret.
The Intro, pre-chorus
E# E C D# D Bb
b---10--9--5-------8--7--3--
g---10--9--5-------8--7--3--
d---10--9--5-------8--7--3--Repeat 2x
G--10--9---5-------8--7--3--

Verse: 3x 3x
b--5-5-7-7--/--3-3-5-5--
g--5-5-5-5--/--3-3-3-3--
d--5-5-6-6--/--3-3-4-4--
G--5-5-5-5--/--3-3-3-3--

Chorus: 4x
b-3-3-6----8-8-8--
g-3-3-6----8-8-8--
d-3-3-6----8-8-8--
G-3-3-6-8-8-8-8--
D--------6---------

You know the words.

OptimusPrime

Toegevoegd door OptimusPrime op zo 01 dec, 2002 8:41 am

Auteur: ?
Componist: ?
Uitgever: ?
Taal: Engels

Reacties

CommonCrawl [Bot]

Volg Muzikum