The Black Crowes

The Black Crowes
Sister Luck (Guitar tab)

BLACK CROWES
SISTER LUCK

Here's 'Sister Luck'.
This tab will make a lot more sense if you listen to the record while looking at it cause I don't take into account all the pauses and whatnot.
h = hammer-on
p = pull-off
/ = slide up
\ = slide down


INTRO:
LINE ONE:
e|-------------------
b|-5-h-6--6--6-p-5-5-
g|-5------5--5-----5-
d|-5-h-7--7--7-p-5-5- x2
a|-------------------
e|-------------------
LINE TWO:
e|------------------------------------------------------
b|-------6-----6p5--------5-5\3-3-3----------------3/5--
g|-5-------5---------5----5-5\3-3-3---3--3-3----3--3/5-- x6 (four w/o
d|-5-h-7-----7-----5------5-5\3-3-3---3--3-3h5--3--3/5-- band, 2 with)
a|------------------------------------------------------
e|------------------------------------------------------

VERSE (use line two of intro):
Worried sick my eyes are hurting
To rest my head I'd take a life
Outside the girls are dancing
Cause when you're down, it just don't seem right
Feeling second fiddle to a dead man
Up to my neck with your disregard
Like a beat dog that's walking on the broadway
No one wants to hear you when you're down

CHORUS:
Sister luck is screaming out
D C
Somebody else's name
Bb
(repeat)

Verse two
Chorus

BRIDGE:
e|------------- ---------
b|-3-/-5------- -3-3-----
g|-3-/-5-etc.-- x3 -3-3--2--
d|-3-/-5------- -3-3--3--
a|------------- -1-1--3--
e|------------- ------1--
(repeat)


Have fun with it.
Goda

OptimusPrime

Toegevoegd door OptimusPrime op zo 01 dec, 2002 8:40 am

Auteur: ?
Componist: ?
Uitgever: ?
Taal: Engels

Reacties

CommonCrawl [Bot]

Volg Muzikum