The Black Crowes

The Black Crowes
Come On (Guitar tab)

Author/Artist: Black Crowes
Title: Come on
Album: Lions
Transcribed by: Bob Stafford 8/22/01
This is not note for note, but it will get you there.

Intro Riff:
-7-7--x--7-7--x--7-9--|-7-7--x--7-7--x--7-9--|-7-7--x--7-7--x--7-9--|
-9-9--x--9-9--x--7-10-|-9-9--x--9-9--x--9-10-|-9-9--x--9-9--x--9-10-|
-9-9--x--9-9--x--9-9--|-9-9--x--9-9--x--9-9--|-9-9--x--9-9--x--9-9--|
-9-9--x--9-9--x--9----|-9-9--x--9-9--x--9----|-9-9--x--9-9--x--9----|
-7-7--x--7-7--x--7----|-7-7--x--7-7--x--7----|-7-7--x--7-7--x--7----|
-7-7--x--7-7--x--7----|-7-7--x--7-7--x--7----|-7-7--x--7-7--x--7----|

Riff 1
-7--5--7--5-
-9--7--7--5-
-9--7--8--6-
-9--7--9--7-
-7--5--9--7-
-7--5--7--5-

Verse:
-0------------|-0-----------|-0------------|-------------|
-2------------|-2-----------|-2------------|-------------|
-2-1p2p2p2-1--|-2-1p2p2p2---|-2-1p2p2p2-1--|-------------|
-2----------3-|-2--------03-|-2----------3-|-------------|
-0------------|-0-----------|-0------------|-4p5p5p5-4---|
--------------|-------------|--------------|----------5--|


-0------------|-0-----------|-0------------|-------------|-------------|
-2------------|-2-----------|-2------------|-------------|-------------|
-2-1p2p2p2-1--|-2-1p2p2p2---|-2-1p2p2p2-1--|-------------|-------------|
-2----------3-|-2--------03-|-2----------3-|-------------|-------------|
-0------------|-0-----------|-0------------|-4p5p5p5-4---|-4p5p5p5-7---|
--------------|-------------|--------------|----------5--|----------0--|


Riff 2:

-4-\-2-/-9--\-7-|-4-\-2-/-9--\-7-|-4-\-2-/-9--\-7-|
-5-\-3-/-10-\-8-|-5-\-3-/-10-\-8-|-5-\-3-/-10-\-8-|
-4-\-2-/-9--\-7-|-4-\-2-/-9--\-7-|-4-\-2-/-9--\-7-|
----------------|----------------|----------------|
----------------|----------------|----------------|
----------------|----------------|----------------|

Order of Play: intro, Riff 1,Verse,Intro riff, Riff 2,Riff 1,Verse,Intro riff, Riff 2, Bridge is a jam on cords E & A, Riff 2, End on intro riff

OptimusPrime

Toegevoegd door OptimusPrime op wo 06 feb, 2002 6:20 pm

Auteur: ?
Componist: ?
Uitgever: ?
Taal: Engels
Beschikbaar op: Lions (2001)

Reacties

CommonCrawl [Bot]

Volg Muzikum