Black Sabbath

Black Sabbath
Paranoid Ver 6 (Guitar tab)

Paranoid-Black Sabbath (this is how Iommi plays it)


Intro
E|----------------------------------------------|
B|----------------------------------------------|
G|----------------------------------------------|
D|----------------------------12h14-------12----|
A|-12h14--12h14--12h14--12h14-------12h14----14-|
E|-12-----12-----12-----------------------------|

16 times 8 times
|-------------------|-------------------|-------------|
|-------------------|-------------------|-------------|
|-------------------|-------------------|-------------|
|-------------------|-------------------|-12----------|
|-14-14-14-14-14-14-|-12-12-12-12-12-12-|-10--12--14--|
|-12-12-12-12-12-12-|-10-10-10-10-10-10-|-----10--12--|

OptimusPrime

Toegevoegd door OptimusPrime op zo 01 dec, 2002 8:40 am

Auteur: ?
Componist: ?
Uitgever: ?
Taal: Engels

Reacties

CommonCrawl [Bot]

Volg Muzikum