Black Sabbath

Black Sabbath
Paranoid Ver 2 (Guitar tab)

artist - black sabbath
song - paranoid
transcribed by - corey

intro
|-------------------------------|
|-------------------------------|
|--7/9--/9--/9------7h9----7h9--|
|--7/9--/9--/9--7h9-----7h9-----|
|--5/7--/7--/7------------------|
|-------------------------------|

verse - palm muting (play fast) fill-in
|------------------------------------|---------------------------------------|
|------------------------------------|---------------------------------------|
|--x9-----------x7------------9-7/9--|--9---5--7-----------------------------|
|--x9 =14 times-x7 =8 times---9-7/9--|--9---5--7 go back to palm muted part--|
|--x7-----------x5------------7-5/7--|--7---3--5-----------------------------|

OptimusPrime

Toegevoegd door OptimusPrime op zo 01 dec, 2002 8:40 am

Auteur: ?
Componist: ?
Uitgever: ?
Taal: Engels

Reacties

CommonCrawl [Bot]

Volg Muzikum