Black Sabbath

Black Sabbath
Electric Funeral Ver 2 (Guitar tab)

Electric_funeral
by
Black Sabbath

This is a pretty easy song. The other version of this song is just a
bit off. This version is nearly 100% correct.

Standard Tuning



riff1

|------------------------|
|------------------------|
|------------------------|
|------h-----------------|
|-----2-3-2-------h------|
|-0-0---------0-2-3-2----|


Song riff

|-------------------|
|-------------------|
|-------------------|
|-------------------|
|-----2----1----0---|
|-0--------------3--|


|--------------|------------12--12--12--12--12--|-----------12--12--12-
|--------------|------------12--12--12--12--12--|-----------12--12--12-
|--------------|------------12--12--12--12--12--|-----------12--12--12-
|--------------|--------------------------------|----------------------
|---14-13-12---|--14-12-14----------------------|-14-12-14-------------
|---12-11-10---|--12-10-12----------------------|-12-10-12-------------



Riff3
|-------------------|---------------------|---------------
|-------------------|---------------------|---------------
|----12-14-12-14^---|----12-14-14^-12-----|---------------
|-14----------------|-14--------------14--|---------------
|-------------------|---------------------|---------------
|-------------------|---------------------|---------------



riff4
(that part when Ozzy goes: Electric funeral!!)
|-----)---)---)---)---|
|---16--16--16--16----|
|---------------------|
|---------------------|
|---------------------|
|---------------------|



riff5
|--------------------------|
|--------------------------|
|--------------------------|
|-12--12--12�-14---/18\14--|
|--------------------------|
|--------------------------|

OptimusPrime

Toegevoegd door OptimusPrime op zo 01 dec, 2002 8:40 am

Auteur: ?
Componist: ?
Uitgever: ?
Taal: Engels

Reacties

CommonCrawl [Bot]

Volg Muzikum