Black Sabbath

Black Sabbath
Electric Funeral Ver 5 (Guitar tab)

Black Sabbath
Electric Funeral
riff 1 (played 4X for opening.... i think and fill between verses)
1)----------------------------------
2)----------------------------------
3)----------------------------------
4)----------------------------------
5)----3h4p3-------------------------
6)1-1-------1-3h4p3-----------------

riff 2 (starts when ozzy sings)
1)----------*------------------------
2)----------*------------------------
3)----------*------------------------
4)----------*------------------------
5)--3-2-1---*---------3-2-1----------
6)1-------4-*-1-1-1-1-------4--------

*= play this 1st time
play 2nd part rest of time

thats it for now ill do the rest later peace

OptimusPrime

Toegevoegd door OptimusPrime op zo 01 dec, 2002 8:39 am

Auteur: ?
Componist: ?
Uitgever: ?
Taal: Engels

Reacties

CommonCrawl [Bot]

Volg Muzikum