Eels

Eels
Guest List (Guitar tab)

The Eels
Guest List

Tabbed by Duncan Hall
.....................................................................................

Okay, I got bored waiting for someone else to tab it, so I did it myself. It sounds pretty good, but theres a
harmonica in there some where, so you figure it out.

Standard Tuning.
Clean Guitar
Let Ring


Intro:

E --------------------------------------------------------------------------------------------------------------------------------------0----
B ------------1----------------------------------------1------1--------------------------------1-------------------------------------------
G ----------------------------0-------------0----------------------0---------------------------------------------0-------------0----------
D ----3-----------3---0--------------0-----------------------------------0-----------3-------------3----0-------------0----------------
A --------------------------------------------------------------------------------------------------------------------------------------------
E --------------------------------------------------------------------------------------------------------------------------------------------


E --------0------------------
B ---------------1-----------
G ---------------------0---- Play Twice
D ---------------------------
A ----------------------------
E ----------------------------

Verse:

E --------------------------------------------------------------------------------------------------------------------------------------0----
B ------------1---------------------------------------- 1-1---1--------------------------------1-------------------------------------------
G ----------------------------0-------------0---0-------------------0-------------------------------------------------0-----------------------
D ----3-----------3---0---------0-----0-----------------------------------0-----------3-------------3----0-------------0----------------
A --------------------------------------------------------------------------------------------------------------------------------------------
E --------------------------------------------------------------------------------------------------------------------------------------------

Are you one of the beautiful people Is my name on the list



E --------0------------------
B ---------------1-----------
G ---------------------0----
D ---------------------------
A ----------------------------
E ---------------------------


Keep playing this for the verses, the rythm's the same, and I cant be bothered to figure out the rest.


iamjesus9@hotmail.com

OptimusPrime

Toegevoegd door OptimusPrime op zo 01 dec, 2002 9:44 am

Auteur: ?
Componist: ?
Uitgever: ?
Taal: Engels

Reacties

CommonCrawl [Bot]

Volg Muzikum