R.E.M.
All The Way To Reno (You're Gonna Be A Star) (Guitar Chord)

From: =?iso-8859-1?Q?Helge_Komper=F8d?=
Subject: r/rem/all_the_way_to_reno.crd
Date: Mon, 18 Mar 2002 19:16:44 +0100

ALL THE WAY TO RENO

Chords: C X32010
Bb 113331
Dm XX0231
F 133211
Eb 355343
Gm 355333

You can use these riffs in some parts during the song instead of just =
ordinary chords,
D= strike down on the strings, U=strike up. On the normal chords, I =
play this song D DU U DU

Intro:
C Bb C Bb =
=
E:--0---0-0----------1-------------0---0-0--------------------------
B:--1---1-1------1---3-------------1---1-1-------3--1---------------
G:--0---0-0---0---0--3------0------0---0-0---0-3-------0----(0)----- X = 2
D:--2---2-2----------3--3--3---3---2---2-2---------------------(3)-- = =
A:--3---3-3----------1-------------3---3-3--------------------------
E:-------------------1----------------------------------------------
D D U D D D U

You can use this riff to replace the Dm and F chords on the end of each =
verse:

Dm F
E:------------------------
B:------------------------
G:--------0--2------0--2--
D:--0--3---------3--------
A:--------------3---------
E:------------------------

And this riff you can use to replace the Gm chord in the first line of =
the chorus:

Gm
E:-----------------------------------
B:--3---1------------------------1---
G:-(0)-(0)--3---2---0---0-2--3--(0)--
D:---------(0)-(0)3----(0)--(0)------
A:-----------------------------------
E:-----------------------------------

  • OptimusPrime

    Toegevoegd door

    OptimusPrime op zo 01 sep, 2002 8:02 am

  • <
  • Frank Potters

    Laatst bijgewerkt door

    Frank Potters op wo 28 jun, 2017 7:52 pm

  • <
Copyrights
Auteur: ?
Componist: ?
Uitgever: ?
Meer details
Taal: Engels

Reacties

CommonCrawl [Bot]

Volg Muzikum