Eddie Cochran

Eddie Cochran
Summer Time Blues (Bass tab)

(summertime blues) by: eddie cocheran
summited by: tim chadwick jr.

G:-------------------------------------------------------------------
D:---------------------------7---7--7----------7--7--7---------------------
A:-7--7---7---7---7--7--7-7-----------7---7--7----------7------------------------
E:-------------------------------------------------------------------
i'm gonna raise a fuss i'm gonna raise a hollar

G:-------------------------------------------------------------------
D:--7--7---7---7---7---7---7--------7-7--7----7---------------------------------
A:------------------------------7-------------------------------------
E:-------------------------------------------------------------------
try to call my baby try to get a date.

OptimusPrime

Toegevoegd door OptimusPrime op zo 01 dec, 2002 9:45 am

Auteur: ?
Componist: ?
Uitgever: ?
Taal: Engels

Reacties

CommonCrawl [Bot]

Volg Muzikum