Disturbed

Disturbed
Want Ver 3 (Guitar tab)

Tuning: 1/2 Step Down, Drop D
- harmonics
^ - bend 1 step

CHORUS:
|----------------------------------------------------|
|----------------------------------------------------|
|----------------------------------------------------|
|-2--2-2-2-2--2-2-2-0-2-3--2--2-2-2-2--2-222-2-2-222-|
|-2--2-2-2-2--2-2-2-0-2-3--2--2-2-2-2--2-222-2-2-222-|
|-2--2-2-2-2--2-2-2-0-2-3--2--2-2-2-2--2-222-2-2-222-|
PM . . . . . . . . . . ... . . ...

VERSE
|----------5-5^------------|play|----------5-5^---------------|
|--------------------------|3X |-----------------------------|
|--------------------------|then|--------------------------------|
|--------------------------| |--------------------------------|
|------------------------5-| |------------------------5-------|
|-2-2-2-0-0----0-2-2-2-0---| |-2-2-2-0-0----0-2-2-2-0---------|
PM. . . . . . . . . . . . . . . . . . . .

FILL:
|---------------|
|---------------|
|---------------|
|---------------|
|-5-7-7-5-7-7-7-|
|---------------|

BRIDGE:
|------------------| |--------------------|
|------------------|play|--------------------|
|------------|3X |---------XX---|
|-2-2--2--------|then|-2-2--2--XX----3----|
|-2-2--2-----------| |-2-2--2--------3----|
|-2-2--2-----------| |-2-2--2--------3----|

INTERLUDE:
|-------------------------------------|
|-------------------------------------|
|-------------------------------------|
|-------------------------------------|
|-10------------------------10-9--/17-|
|-10-9--5-4-4-5-4-2--2-4-5--10-9--/17-|

INTERLUDE 2:
|-------------------------------------------22^-|
|-----------------------------------------------|
|-----------------------------------------------|
|-2--2-2-2--2-222-0-2-3--2-2--2-2--2-2--2-2-----|
|-2--2-2-2--2-222-0-2-3--2-2--2-2--2-2--2-2-----|
|-2--2-2-2--2-222-0-2-3--2-2--2-2--2-2--2-2-----|
PM . . . ...

FILL 2:
|---------------------------|
|---------------------------|
|---------------------------|
|-2-2--2-2--2-2--2-2--2-2-2-|
|-2-2--2-2--2-2--2-2--2-2-2-|
|-2-2--2-2--2-2--2-2--2-2-2-|
PM . . .

INTERLUDE 3:
|-------------------------------|
|-------------------------------|
|-------------------------------|
|-2-----------2-----------0-2-3-|
|-2-----------2-----------0-2-3-|
|-2-2-2-2-2-2-2-2-2-2-2-2-0-2-3-|
PM . . . . . . . . . .

OUTRO:
|---------------------|
|---------------------|
|---------------------|
|-2-2--2-2--2-2-2-2-2-|
|-2-2--2-2--2-2-2-2-2-|
|-2-2--2-2--2-2-2-2-2-|

OptimusPrime

Toegevoegd door OptimusPrime op do 14 aug, 2003 4:39 pm

Auteur: ?
Componist: ?
Uitgever: ?
Taal: Engels

Reacties

CommonCrawl [Bot]

Volg Muzikum