Disturbed

Disturbed
Voices (Bass tab)

Disturbed
Voices
Patrick Mathieu


Heavy part
-|----------------------------------|---------------------------------------|-
-|----------------------------------|---------------------------------------|-
-|----------------------------------|---------------------------------------|-
-|--7--9--7---9-7-9-9-7-9---3-------|-7--9--7--9--7--9--7--9--------xxxxxx--|-


Verses
-|----------------------------------|---------------------------------------|-
-|----------------------------------|---------------------------------------|-
-|----------------------------------|---------------------------------------|-
-|-7-9-7--9-7-9--9-7-9--3----3------|--/7-9-7--9-7-9--9-7-9-/15-15-15-------|-

Chorus

G|---------------------------|--------------------------|
D|------0------4------9------|------0------4------9-----|
A|----0------4------9--------|----0------4------9---9---|
D|--0------4------9----------|--0------4------9-------9-|


G|-------------------|
D|------0------4-----|
A|----0------4-------|
D|--0------4------0--|


Bridge:

G|---------------------| |--------------------------|
D|---------------------| 5X Then: |-------------9--9--9--9---|
A|---------------------| |--------------------------|
D|--9--7--10--4--5--7--| |--9--7--10----------------|

2nd Bridge:

G|-------------------------------|-------------------------------|
D|-------------------------------|-------------------------------|
A|-------------------------------|-------------------------------|
D|-9--12-9--10-9--12-9--10-9--12-|-9--12-9--10-9--12-9--10-9--15-|

OptimusPrime

Toegevoegd door OptimusPrime op do 14 aug, 2003 4:39 pm

Auteur: ?
Componist: ?
Uitgever: ?
Taal: Engels

Reacties

CommonCrawl [Bot]

Volg Muzikum